Deftones - Back To School Chords & Tabs

 

Back To School Chords & Tabs

Deftones Chords & Tabs

Version: 3 Type: Bass Tab 0 ratings
1 star 2 stars 3 stars 4 stars 5 stars
comments

Back To School Bass Tab

just listen to it to find the bass

Verse(00:15)
F|--------------------------------------------|
C|--------------------------------------------|
G|--------------------------------------------|
C|0-10-12-0-12-12-10--------------------------|

F|--------------------------------------------|
C|--------------------------------------------|
G|--------------------------------------------| pause for a sec
C|--10-12-0-12-12-10--------------------------|

F|--------------------------------------------|
C|--------------------------------------------|
G|-------0------------------------------------|
C|555-333--3333-------------------------------|
play that four times
Chorus(00:43)
F|--------------------------------------------|
C|--------------------------------------------|
G|--------------------------------------------|
C|--000-15-000-15-0-17-15-0-------------------|
[ Tab from: http://www.guitartabs.cc/tabs/d/deftones/back_to_school_btab_ver_3.html ]
F|--------------------------------------------|
C|--------------------------------------------|
G|--------------------------------------------|
C|-888-12-11-8-12-11-8-12-12-12---------------|
play that four times

go back to the verse
play it four times
after that go to the chorus
play it four times

F|--------------------------------------------|
C|--------------------------------------------|
G|--------------------------------------------|
C|-3333333333-------0000000000----0-----------|
play that until they stop
F|--------------------------------------------|
C|--------------------------------------------|
G|--------------------------------------------|
C|-3~-5~-3~-0~--------------------------------|
play that four times

go back to the chorus

F|--------------------------------------------|
C|--------------------------------------------|
G|--------------------------------------------|
C|-3333333333-------0000000000----------------|

That should be it, have fun with it, please rate me on this tab.
Just listen to the song to get it right, btw it took me a couple of trys to get it.
But once i got it, i played it lots and lots of times to make sure i had it.
Comments