Deftones - Around The Fur Chords & Tabs

 

Around The Fur Chords & Tabs

Deftones Chords & Tabs

Version: 2 Type: Bass Tab 0 ratings
1 star 2 stars 3 stars 4 stars 5 stars
comments

Around The Fur Bass Tab

   
Deftones
Song:  Around the Fur
Album:  Around the Fur
Tabbed by:  Stephen Short (sms_stylee@yahoo.com)

Tuning-C#,G#,F#,C#


Verse:

1|-----------------------------------
2|-----------------------------------
3|-----------------------------------
4|-0-0-0-0--X-12-12-12--8-8-8--5-5-5-


Chorus:
[ Tab from: http://www.guitartabs.cc/tabs/d/deftones/around_the_fur_btab_ver_2.html ]
	Play this X3
1|--------------------------------------------------------------------
2|--------------------------------------------------------------------
3|--------------------------------------------------------------------
4|-0--0---3-3-3-3-3-3-3-3--4-4-4-4-4-4-4-4/11-11-11-11-11-11-11-11-11-

	Then this once
1|--------------------------------------------
2|--------------------------------------------
3|--------------------------------------------
4|-0---3-3-3-3-3-3-3-3--2-2-2-2-2-2-2-2--0~~~-


Bridge:

1|--------------
2|--------------
3|-------4-5----
4|-0-0-------6~-


Ending:

1|-----------------------------------
2|-----------------------------------
3|-----------------------------------
4|-0-0-0-0-0-0-0-0-10-10-10-10\6-6-6-

	And end by slapping an open C# twice

Visit my band's site at http://syngd.20m.com
Comments