Deftones - Anniversary Of An Uninteresting Event Chords & Tabs

 

Anniversary Of An Uninteresting Event Chords & Tabs

Deftones Chords & Tabs

Version: 1 Type: Tab 0 ratings
1 star 2 stars 3 stars 4 stars 5 stars
comments

Anniversary Of An Uninteresting Event Tab

   
Deftones	Anniversary of an Uninteresting Event
Ab-Db-Gb-Cb-Fb-Ab-Db

|---------------------------------------------------------------------------------------------|
|---------------------------------------------------------------------------------------------|
|-15-15-15-15---1515---15-15-15-17----1717--17---17--17---17171717-17-17-15-15-15-15-15-15-15-|
|---------------------------------------------------------------------------------------------|
|---------------------------------------------------------------------------------------------|
|---------------------------------------------------------------------------------------------|
|---------------------------------------------------------------------------------------------|

|---------------------------------------------------------------3-3-3-----3---3------3-3-|
|---------------------------------------16--16--------------------------4----------------|
|-1515-15-15-15-17--171717-17-17-17-15----15---15--15-----------------5-----5------5-----|
|----------------------------------------------------------------------------------------|
|----------------------------------------------------------------------------------------|
|----------------------------------------------------------------------------------------|
|----------------------------------------------------------------------------------------|
								     ...
			    "But Now"
|-----------------------------------------------------------------------------------------|
|-------------11--------------------------------------------------------------------8---8-|
|-17--17-15------8--8--5--------17--17171717--17171717--17171717--1717-15------6-5----5---|
|-----------------------------------------------------------------------------------------|
|-----------------------------------------------------------------------------------------|
|-----------------------------------------------------------------------------------------|
|-----------------------------------------------------------------------------------------|

"Bar"
|---------------------------------------------3---3-------3-----3-------------------------------------|
|-------------------------------------------4-----------------4----------------16---------------------|
|-17--17171517--17171517--17171517--------5-----5-----5-----5-----5----------5---15--15-1515--1515-15-|
|-----------------------------------------------------------------------------------------------------|
|-----------------------------------------------------------------------------------------------------|
|-----------------------------------------------------------------------------------------------------|
|-----------------------------------------------------------------------------------------------------|
[ Tab from: http://www.guitartabs.cc/tabs/d/deftones/anniversary_of_an_uninteresting_event_tab.html ]
|----------------------------------------------------------------------------------------------|
|------------------------------------------11--11---11-----------------------------------------|
|-1515-15--15----17--17--171717171715--------8-----8-----15~/(17)17---17-17---151715--17-17-15-|
|----------------------------------------------------------------------------------------------|
|----------------------------------------------------------------------------------------------|
|----------------------------------------------------------------------------------------------|
|----------------------------------------------------------------------------------------------|

			    		      "Now"
|-11----------11-----------11--------------------------------------------------------|
|---11--11--11--11--1111-----11--11----11--------------------------------------------|
|------8---8-------8------------8-----8------17--1717-17--1717-17----171717-17-17-15-|
|------------------------------------------------------------------------------------|
|------------------------------------------------------------------------------------|
|------------------------------------------------------------------------------------|
|------------------------------------------------------------------------------------|

|-11----------11------------11------------------------------------------------------------------|
|---11--11--11--11--11--------11--11----11--11--------------------------------------------------|
|------8---8-------8---8---------8---------8---8----15~/(17)17-151715--17--151715-17--151715-15-|
|-----------------------------------------------------------------------------------------------|
|-----------------------------------------------------------------------------------------------|
|-----------------------------------------------------------------------------------------------|
|-----------------------------------------------------------------------------------------------|

|-------------11------------11---------------|
|-11--11--------11--1111------11--11----11---|
|----8---8---------8-------------8-----8---8-|
|--------------------------------------------|
|--------------------------------------------|
|--------------------------------------------|
|--------------------------------------------|

"Now"
|--------------------------------------------11----------11------------11------------------|
|----------------------------------------------11--11--11--11--11--------11--11-----11--11-|
|-17--171717--1517-1517--15171517-17-17-15--------8---8-------8---8---------8------8---8---|
|------------------------------------------------------------------------------------------|
|------------------------------------------------------------------------------------------|
|------------------------------------------------------------------------------------------|
|------------------------------------------------------------------------------------------|
Comments