Deftones - 7 Words Chords & Tabs

 

7 Words Chords & Tabs

Deftones Chords & Tabs

Version: 4 Type: Tab 0 ratings
1 star 2 stars 3 stars 4 stars 5 stars
comments

7 Words Tab

   
Tabbed by: Francesco "Striker" Capolupo
Title: 7 Words
Artist: Deftones
Album: Adrenaline


Drop To C: DAFCGC
Heavy Distortion
mail me if you have any questions strikercapolupo@tin.it
RATE PLEASE!!! ;)


INTRO

Riff 1				Repeat X14
D||----------------------------------------------|
A||----------------------------------------------|
F||--11-11-11-11-11-11--12-12-12-12-12-12--------|
C||--11-11-11-11-11-11--12-12-12-12-12-12--------|
G||---9--9--9--9--9--9---9--9--9--9--9--9--------|
C||----------------------------------------------|	
... I'll never be the same ...



Riff 2				Repeat X1
D||----------------------------------------------|
A||----------------------------------------------|
F||--11-11-11-11-11-11---14-14---14--------------|
C||--11-11-11-11-11-11---14-14---14--------------|
G||---9--9--9--9--9--9---12-12---12--------------|
C||----------------------------------------------|
                     ... now your wrong !!!!! ...



CHORUS

Riff 3				Repeat X3
D||----------------------------------------------|
A||--------6^------------------------------------|
F||----------------------------------------------|
C||--4--4----------------------------------------|
G||--4--4----------------------------------------|
C||--4--4----------------------------------------|
... Suck!! Suck!! Suck!! ...



Riff 4				Repeat X1
D||--------6^------------------------------------|
A||----------------------------------------------|
F||----------------------------------------------|
C||--4--4----------------------------------------|
G||--4--4----------------------------------------|
C||--4--4----------------------------------------|
... They f**k with my head ...



Repeat this sequence 2 times



PART 2

Riff 1				Repeat X7
D||----------------------------------------------|
A||----------------------------------------------|
F||--11-11-11-11-11-11--12-12-12-12-12-12--------|
C||--11-11-11-11-11-11--12-12-12-12-12-12--------|
G||---9--9--9--9--9--9---9--9--9--9--9--9--------|
C||----------------------------------------------|	



Riff 2				Repeat X1
D||----------------------------------------------|
A||----------------------------------------------|
F||--11-11-11-11-11-11---14-14---14--------------|
C||--11-11-11-11-11-11---14-14---14--------------|
G||---9--9--9--9--9--9---12-12---12--------------|
C||----------------------------------------------|



REPEAT CHORUS



PART 3

Riff 5				Repeat X1 
D||----------------------------------------------|
A||----------------------------------------------|
F||----------------------------------------------|
C||--4m------------------------------------------|
G||--4m------------------------------------------|
C||--4m------------------------------------------|
... You don't know me ...



Riff 6				Repeat X1
D||----------------------------------------------|
A||----------------------------------------------|
F||----------------------------------------------|
C||--4m-4m-4m-4m-4m-4m---------------------------|
G||--4m-4m-4m-4m-4m-4m---------------------------|
C||--4m-4m-4m-4m-4m-4m---------------------------|
... big f**kin, big f**kin, ahh!! ...



Riff 7				Repeat X12
D||----------------------------------------------|
A||----------------------------------------------|
F||----------------------------------------------|
C||--2-4-x-x-10-10-10-9--9-9-9-9-10--------------|
G||--2-4-x-x-10-10-10-9--9-9-9-9-10--------------|
C||--2-4-x-x-10-10-10-9--9-9-9-9-10--------------|



REPEAT PART 2



PART 4

Riff 3				Repeat X3
D||----------------------------------------------|
A||--------6^------------------------------------|
F||----------------------------------------------|
C||--4--4----------------------------------------|
G||--4--4----------------------------------------|
C||--4--4----------------------------------------|
... Suck!! Suck!! Suck!! ...



Riff 4				Repeat X1
D||--------6^------------------------------------|
A||----------------------------------------------|
F||----------------------------------------------|
C||--4--4----------------------------------------|
G||--4--4----------------------------------------|
C||--4--4----------------------------------------|
... They f**k with my head ...


[ Tab from: http://www.guitartabs.cc/tabs/d/deftones/7_words_tab_ver_4.html ]
Riff 3				Repeat X3
D||----------------------------------------------|
A||--------6^------------------------------------|
F||----------------------------------------------|
C||--4--4----------------------------------------|
G||--4--4----------------------------------------|
C||--4--4----------------------------------------|
... Suck!! Suck!! Suck!! ...



Riff 4				Repeat X1
D||--------6^------------------------------------|
A||----------------------------------------------|
F||----------------------------------------------|
C||--4--4----------------------------------------|
G||--4--4----------------------------------------|
C||--4--4----------------------------------------|
... They f**k with my head ...



Riff 3				Repeat X1
D||----------------------------------------------|
A||--------6^------------------------------------|
F||----------------------------------------------|
C||--4--4----------------------------------------|
G||--4--4----------------------------------------|
C||--4--4----------------------------------------|



Riff 4				Repeat X1
D||--------6^------------------------------------|
A||----------------------------------------------|
F||----------------------------------------------|
C||--4--4----------------------------------------|
G||--4--4----------------------------------------|
C||--4--4----------------------------------------|



Riff 3				Repeat X1
D||----------------------------------------------|
A||--------6^------------------------------------|
F||----------------------------------------------|
C||--4--4----------------------------------------|
G||--4--4----------------------------------------|
C||--4--4----------------------------------------|



Riff 8				Repeat X1
D||--------7^------------------------------------|
A||----------------------------------------------|
F||----------------------------------------------|
C||--4--4----------------------------------------|
G||--4--4----------------------------------------|
C||--4--4----------------------------------------|



Riff 3				Repeat X3
D||----------------------------------------------|
A||--------6^------------------------------------|
F||----------------------------------------------|
C||--4--4----------------------------------------|
G||--4--4----------------------------------------|
C||--4--4----------------------------------------|



Riff 4				Repeat X1
D||--------6^------------------------------------|
A||----------------------------------------------|
F||----------------------------------------------|
C||--4--4----------------------------------------|
G||--4--4----------------------------------------|
C||--4--4----------------------------------------|



END

Riff 9				Repeat X1
D||----------------------------------------------|
A||----------------------------------------------|
F||----------------------------------------------|
C||--6-6---1----5m-5m-5m-------------------------|
G||--6-6---1----5m-5m-5m-------------------------|
C||--6-6---1----5m-5m-5m-------------------------|





Enjoy!

****************************************************
Lyrics

Deftones - 7 Words

I'll never be the same, breaking decency
Don't be tree trunk, don't fall on my living roots
I've been humming too many words, got a weak self esteem
That's been stomped away from every single dream
But it's something else that brought us feaze
Keep it all inside until we feel we can't unleash
I think that you made it up, I think that your mind is gone
I think you shouldn't have glorified, now your wrong
Suck(11x)
They f**k with my head
Suck(10x) b*tch
You and me are here alone face flat along the edge of the glass
But I'm not here to preach, I'm just sick of thugs
My parents made me strong to look up that glass
So why should I try, act like I'm a little pissed off
With all that sh*t that needs to stay back in the shell
Because your punk *ss made it up, your f***ing mind was gone
Shoud've never glorified, now your right
Suck(12x)
They f*ck with my head
Suck(10x)
You don't know me, shut up you don't know me
Squeal like a pig when you big f**kin, big f**kin, ahh!!
Well I'll tell you about my smoke stack
What's coming back jack, We'll turnback
Curse for in their words in their words
Tell them that you f**king heard
I mean, they know that's what's coming nigga and you're a quitter
I thinking 'bout something naughty and won't tell anybody
So thinking of me by now but you go grab it
I'd like to think, for who I down this sh*t
I belong where they be, 'cause we can not get back those lives
We exist to cease, understand
That god hates blacks shades and all the players
Mr. P.I.G cause I f**kin see
Sure already done crushed all of my brothers dignity
And to the jury can't be no turn is all,my skin looks colored
Does that mean I'm burnt
Cause your punk *ss made it up, your f**kin mind was gone
Should've never glorified, WRONG!!
Suck!(12x)
They f*ck with my head
Suck!(10x)
You bad, BOY!
Comments