Deftones - 7 Words Chords & Tabs

 

7 Words Chords & Tabs

Deftones Chords & Tabs

Version: 3 Type: Tab 0 ratings
1 star 2 stars 3 stars 4 stars 5 stars
comments

7 Words Tab

   
        GUITAR TABLATURE ONLINE

          URL: www.angelfire.com/bc/tablature
	EMAIL: tablature@canada.com

 ----------------------------------------------------------------------------------------------

	     SONG: 7 Words
	     BAND: Deftones
	    ALBUM: Adrenaline
   TRANSCRIBED BY: James Albers
	     DATE: December 6, 1995

 ----------------------------------------------------------------------------------------------

	TUNING: tune your guitar to drop d (d,A,d,G,B,E)



     RIFF 1:
[ Tab from: http://www.guitartabs.cc/tabs/d/deftones/7_words_tab_ver_3.html ]
    E|--------------------------|    Bass Riff
    B|--------------------------|
    G|--------------------------|------------------|
    D|--9-9-999-9---9-9-999-9---|--0^2 0------0----|
    A|--7-7-777-7---8-8-888-8---|--------0-11---1--|
    D|--------------------------|-----(2)----------|


     RIFF 2:    |..3....  |....4....

    E|--0--|-----------------|----------|
    B|--0--|-----------------|--11~~~~--|
    G|--0--|--------10~~~~~--|----------|
    D|--0--|--2--------------|----------|
    A|--0--|--2--------------|----------|
    D|--2--|--2--------------|----------|

     Fill 1	      RIFF 3:

    E|----------------|---------------------|
    B|----------------|---------------------|
    G|----------------|---------------------|
    D|--2-2-2--2-2-2--|--------3-3-2---2-3--|
    A|--2-2-2--2-2-2--|--0-2---1-1-0---0-1--|
    D|--2-2-2--2-2-2--|--0-2-2--------------|



Comments