Deftones - 7 Words Chords & Tabs

 

7 Words Chords & Tabs

Deftones Chords & Tabs

Version: 5 Type: Bass Tab

7 Words Bass Tab

Deftones
7 Words
Standard Tuning

I saw alot of tabs for this song but this is the right way to play it.

Intro:
Guitar Only 4x

Bass enters after 4th time

Verse:
G-----------------------|
D-----------------------|
A-5h7-5-------5---------|  Bunch of times
E--------0-5-7--7-------|
[ Tab from: http://www.guitartabs.cc/tabs/d/deftones/7_words_btab_ver_5.html ]
Chorus:
G----------------------|
D----------------------|
A--------------5-------|
E-0-0--0--5--7---7-----|

End of 2nd Chorus:
G-----------------------|
D-----------------------|
A-----------------------|
E-0------------00000000-|

Break Down:
G------------------------|
D------------------------|
A------------------------|
E--0-0-77-6666-7777------|

Order:
Guitar Only
Verse
Chorus
Verse
Chorus
End of 2nd Chorus
Break Down
Verse
Chorus till end