Deftones - 7 Words Chords & Tabs

 

7 Words Chords & Tabs

Deftones Chords & Tabs

Version: 4 Type: Bass Tab 0 ratings
1 star 2 stars 3 stars 4 stars 5 stars
comments

7 Words Bass Tab

deftones- 7 words by Venom bassist of forlorn!!!!

it start with guitar en then bass

Verse

G ----------------------------|
D ----------------------------|
A ----7-5----------5----------|
E -----------0-5-7----7-------|

Chorus

G ----------------------------|
D ----------------------------|
A ---------------5------------|
E --0--0-0-5-7----7-----------|

"Big ***in, Big ***in Ape!!!"
[ Tab from: http://www.guitartabs.cc/tabs/d/deftones/7_words_btab_ver_4.html ]
G ----------------------------|
D ----------------------------|
A ----------------------------|
E -0-0-0-0---0-0-0-0----------|

Break Point

G -------------------------------------|
D -------------------------------------|
A -------------------------------------|
E -0-00-6-6-7-77-7-6-6-6-6-------------|

At End...

G ----------------------------|
D ----------------------------|
A ----------------------------|
E -2-2--0--1-1-1--------------|


Song Structure

Verse x23
Chorus x8
Verse x16
Chorus x8
Break x12
Verse x11
Chorus x16
Comments