Deftones - 7 Words Chords & Tabs

 

7 Words Chords & Tabs

Deftones Chords & Tabs

Version: 1 Type: Bass Tab 0 ratings
1 star 2 stars 3 stars 4 stars 5 stars
comments

7 Words Bass Tab

Song:7 words
Album:Adrenaline
Artist:Deftones
tabbed by:Steve Ruhlmann

Out of all of the other 7 words tabs i found 
the one i did seems to be the best But don't quote me.
                             23x                        8x              
G----------------------------||-------------------------||
D---------------------------*||------------------------*||
A---5h7--5------------------*||------------------------*||
E-----------5--7-----10--7---||--0--0--5--5--7--10--7---||
                                                                        
[ Tab from: http://www.guitartabs.cc/tabs/d/deftones/7_words_btab.html ]
                          18x                        8x                 
G-------------------------||-------------------------||
D------------------------*||------------------------*||
A---5h7--5---------------*||------------------------*||
E-----------5--7--10--7---||--0--0--5--5--7--10--7---||
                                                                        

                              12x                       12x             
G-----------------------------||------------------------||
D----------------------------*||-----------------------*||
A---5h7----------------------*||--5h7--5---------------*||
E--------6--6--5--5--5--5h6---||----------5--7--10--7---||
                                                                        

                          till the end                                  
G--------------------------||
D--------------------------||
A--------------------------||
E---0--0--5--5--7--10--7---||
                                                                        
E-Mail:Sruhlma3@cs.com

Comments