Defleshed - Heat From Another Sun Chords & Tabs

 

Heat From Another Sun Chords & Tabs

Defleshed Chords & Tabs

Version: 1 Type: Tab 0 ratings
1 star 2 stars 3 stars 4 stars 5 stars
comments

Heat From Another Sun Tab

Transcribed By: Hot Spicy
Email:          www.unchallengedhate.de / www.japanische-kampfhoerspiele.de

-  - palm mute           /  - slide up to
\  - slide down to       ~  - vibrato
h  - hammer on           b  - Bend
p  - pull off            Suffixes for bend
t  - tap                 f  - full bend    h - half bend
ph - pinched harmonic    q  - quarter bend t - tap bend
*  - see comment         ^  - Hold bend    r release bend
x  - Stuccatto           ~  - vibrato bend
,  - slight palm mute    () - ghost note, sustained note
"  - tremolo note        <> - Trill

Tuning 3 half steps down

|-only--|-other-|--------------------------------------------------
|-first-|-times-|--------------------------------------------------
|-time--|-------|--------------------------------------------------
|-------|----2--|----------------------2------------------------2--
|----2--|----2--|---------5---2---3p0--2-----------3---5---3p0-2--
|----3--|----0--|-0-000-0-3-0-0-0-0----0---0-000-0---0---0-0----0--
                  - --- -   -   -          - --- -   -   -
--------------------------------------------|
--------------------------------------------|
--------------------------------------------|
----------------------------2------5--5--5--|
---------5---2---3p0--2--2--2------5--5--5--|
-0-000-0-3-0-0-0-0----0--0--0---0--3--3--3--|
 - --- -   -   -      -  -      -
|--------------------------------------------------------------------------|
|--------------------------------------------------------------------------|
|-----------------------------(~)----------------------------------(~)-----|
|-2-----------2-3---2------1h2/4----8--2-----------2-3---2------1h2/4----1-|
|-2---------------5------3----------6--2---------------5------3----------3-|
|-0---0-000----------------------------0---0-000---------------------------|
      - ---       -                        - ---       -
|---------------------------------------------------
|---------------------------------------------------
|---------------------------------------------------
|-4---7---4-------------4---7---4---7---------------
|-4---7---4-------------4---7---4---7---------------
|-------------2-222-2-2-----------------0-000-0-000-
              - --- - -                 - --- - ---
 -------------------------------------------------|
 -------------------------------------------------|
 -------------------------------------------------|
 -4---7---4---------------4---7---7---------------|
 -4---7---4---------------4---7---7---------------|
 -------------2-222-2-222-------------3-333-3-333-|
              - --- - ---             - --- - ---
|--------------guitar-1-------------|-guitar-2-|
|-----------------------------------|----------|
|-----------------------------------|----------|
|-4444445p444447p444445p44447p44444-|-4--------|
|-----------------------------------|-4--------|
|-----------------------------------|-2--------|
[ Tab from: http://www.guitartabs.cc/tabs/d/defleshed/heat_from_another_sun_tab.html ]
|---------------both-guitars-----------------|
|--------------------------------------------|
|--------------------------------------------|
|-----------------------5-----4-----3--------|
|-5--4-----8--7---------3-----2-----1---4--5-|
|-3--2-----6--5-----222---222---222-----2--3-|
                    ---   ---   ---
|---------------------------------------------------------------|
|---------------------------------------------------------------|
|---------------------------------------------------------------|
|-----------------------------------------------------5-------4-|
|-4-----4-----4---5\4---4-----4---8\7---7-----7-------3-------2-|
|-2-2-2-2-2-2-2---3\2-2-2-2-2-2---6\5-5-5-5-5-5---2-2-----2-2---|
    - -   - -         -   - -         -   - -     - -     - -
|-------------3-times-------------|------first-time-ending--------|
|---------------------------------|-------------------------------|
|---------------------------------|-------------------------------|
|-------8---7---5/7---------------|-------8---7---5/7-----------3-|
|-------8---7---5/7---------------|-------8---7---5/7-----------3-|
|-0-000---0---0-------0-000-0-000-|-0-000---0---0-------0-000-0---|
  - ---   -   -       - --- - ---   - ---   -   -       - --- -
|----------------------second-time-ending-------------------------|
|-----------------------------------------------------------------|
|-----------------------------------------------------------------|
|-------8---7---5/7---------5---5/7---------5---5/7-----------3---|
|-------8---7---5/7---------5---5/7---------5---5/7-----------3---|
|-0-000---0---0-------0-000---0-------0-000---0-------0-000-0-1---|
  - ---   -   -       - ---   -       - ---   -       - --- -
|------------------break-------------------|
|------------------------------------------|
|------------------------------------------|
|-4---7---4---------------4--------5--4----|
|-4---7---4---------------4--------3--2--5-|
|-------------2-222-2-222-2--------------3-|
              - --- - ---
|-----------only-one-guitar----------------------|-both-guitars--|
|------------------------------------------------|---------------|
|------------------------------------------------|---------------|
|------------------------------------------------|-----5-------4-|
|-4-----4-----4---5\4---4-----4---8\7---7-----7--|-----3-------2-|
|-2-2-2-2-2-2-2---3\2-2-2-2-2-2---6\5-5-5-5-5-5--|-2-2-----2-2---|
    - -   - -         -   - -         -   - -      - -     - -
|----------------------------------------------------------------|
|----------------------------------------------------------------|
|----------------------------------------------------------------|
|------------------------------------------------------8-------7-|
|-7-----7-----7---8\7---7-----7-11\10--10----10-------6-------5-|
|-5-5-5-5-5-5-5---6\5-5-5-5-5-5---9\-8-8-8-8-8-8---5-5-----5-5---|
    - -   - -         -   - -          -   - -     - -     - -
|-------ending-guitar-one----------|
|----------------------------------|
|----------------------------------|
|-------8---7---5/7(~)-------8-9\-|
|-------8---7---5/7/9--------6-7\-|
|-0-000---0---0--------------------|
  - ---   -   -
|-------ending-guitar-two----------|
|----------------------------------|
|----------------------------------|
|-------8---7----------------8-9\-|
|-------8---7---8-10---------6-7\-|
|-0-000---0---0-6-8----------------|
  - ---   -   -
Comments