Defication - Monkey Trouble Chords & Tabs

 

Monkey Trouble Chords & Tabs

Defication Chords & Tabs

Version: 2 Type: Bass Tab 0 ratings
1 star 2 stars 3 stars 4 stars 5 stars
comments

Monkey Trouble Bass Tab

Hey this is the bass for Monkey Trouble its really easy here it goes:

Verse:

G|------------------------------------------------------------------------|
D|------------------------------------------------------------------------|
A|----5-5-7-7--5-5-7-7--5-5-7-7-------------------------------------------|
E|-------------------------------3-3-5-5----------------------------------|

[ Tab from: http://www.guitartabs.cc/tabs/d/defication/monkey_trouble_btab_ver_2.html ]
Chorus:

G|------------------------------------------------------------------------|
D|------------------------------------------------------------------------|
A|----5-5-5-5-5-5-5-5--7-7-7-7-7-7-5-3------------------------------------|
E|--------------------------------------3-3-3-3-3-3-3-3--5-5-5-5-5-5-3-3--|

yep. pretty easy. the order is:

Verse (x6)
Chorus (x2)
Verse (x5)
Chorus (x2)
Verse (x5)
Comments