Default - Wasting My Time Chords & Tabs

 

Wasting My Time Chords & Tabs

Default Chords & Tabs

Version: 5 Type: Tab 0 ratings
1 star 2 stars 3 stars 4 stars 5 stars
comments

Wasting My Time Tab

Ok this is the much anticipated solo, but i need you to listen closely.  This is quit near impossible to pull off thi solo the way he does it.  Most of the solo is used with a whammy pedal, if you dont have one, or anything like it, you can still play the solo, but its played with whammy in the song.  But if your like me you just want the tab, so here it goes.  Wish me luck! 

Part 1
[ Tab from: http://www.guitartabs.cc/tabs/d/default/wasting_my_time_tab_ver_5.html ]
E-----------------------------------------------------------
B-----------------------------------------------------------
G-5--7--9--9-7-----7-----9-9-9-10--9/10/9-------------------
D-x--x--x------10----10-------------------------------------
A-3--5--7----------------------------------4--5--2---4--2--0
E-----------------------------------------------------------


Part 2

E-----------------------------------------------
B-10-10-10-10--8-7-8-7-8-10-----------7h8-7---8-
G----------------------------7-7-7-9------------
D-----------------------------------------------
A-----------------------------------------------
E-----------------------------------------------


End

E------------------------------------
B-14--12--10-----------10--7b--------
G-------------12--11-12-----------7--
D------------------------------9-----
A------------------------------------
E------------------------------------

After that you kick in the verse, and one more chorus and your good.

Wow, that one was rough.  Email me. tell me what you think!

Comments