Default - Wasting My Time Chords & Tabs

 

Wasting My Time Chords & Tabs

Default Chords & Tabs

Version: 2 Type: Tab 0 ratings
1 star 2 stars 3 stars 4 stars 5 stars
comments

Wasting My Time Tab

Aight here the sweet riff for this song. 
if u thnk it sucks then dont use it.
i dont have a copy of the song so its kinda from memory.

reg tuning
[ Tab from: http://www.guitartabs.cc/tabs/d/default/wasting_my_time_tab_ver_2.html ]
e----0-------5p0-----------0----------------------
b------3-3p0------3p0---------0 0h3---------------
g-------------------------------------------------
d--0----------------------------------------------
a-----------------------0-------------------------
e-------------------------------------------------

u can play it wiith a fuller sound like this over the verse

e----0-------5p0-----------0----------------------
b------3-3p0------3p0---------0 0h3---------------
g--2---2----------------2---------2---------------
d--2---0----------------2---------0---------------
a--0--------------------0-------------------------
e-------------------------------------------------

peace out bro

go guerillas
Comments