Default - Wasting My Time Chords & Tabs

 

Wasting My Time Chords & Tabs

Default Chords & Tabs

Version: 13 Type: Tab 0 ratings
1 star 2 stars 3 stars 4 stars 5 stars
comments

Wasting My Time Tab

   
                                                Default - Wasting my time



Please Note:  I tabbed absolutely all of this song it is 100% correct.
              Just play all the way down to the bottom, if you need help
	      listen to the song.
               
Guitar is tuned in drop D :  D A D G B E
__________________________________________________________________________________________________________________________

Chords in song:
 
    G5       A5        B5

e|---x--------x---------x-----|
b|---x--------x---------x-----|
G|---x--------x---------x-----|
D|---5--------7---------9-----|
A|---5--------7---------9-----|
D|---5--------7---------9-----|

_________________________________________________________________________________________________________________________


INTRO(CLEAN):

e|-----0---------------5---------------0---------------5---0---------------0---------------5---------------0------------|
b|-3-------3---3-----------3--0----3-------3---3---------------3---0---3-------3---3-----------3---0---3-------3--------|
G|-2-------0-------0---------------2-------0-------0-------------------2-------0-------0---------------2-------0--------|
D|-0-------------------------------0-----------------------------------0-------------------------------0----------------|
A|----------------------------------------------------------------------------------------------------------------------|
D|----------------------------------------------------------------------------------------------------------------------|


_________________________________________________________________________________________________________________________


VERSE(CLEAN):

     I dont want to see you wait-ing__ .
     I've already gone to far a-way___ .

e|---------0--------------------5------0-----------------------------------------|
b|---3--------------3----3-------------------------------------------------------|
G|---2--------------0--------0------0--------------------------------------------|    x2
D|---0---------------------------------------------------------------------------|
A|-------------------------------------------------------------------------------|
D|-------------------------------------------------------------------------------|

e|---------0--------------------5------0------------0----------------------------|
b|---3--------------3----3-----------------3-----------------------3-------------|
G|---2--------------0--------0------0------2----2--------2----0----0-------------|    x1
D|---0-------------------------------------0-------------------------------------|
A|-------------------------------------------------------------------------------|
D|-------------------------------------------------------------------------------|


     I still can't keep the day from end-ing__ .
     No more messed up reasons for me to stay__ .

e|------------0-------------------------5------0---------------------------------|
b|---3-------------------3------3------------------------------------------------|
G|---2-------------------0----------0------0-------------------------------------|    x2
D|---0---------------------------------------------------------------------------|
A|-------------------------------------------------------------------------------|
D|-------------------------------------------------------------------------------|

e|------------0-------------------------5------0----------0----------------------|
b|---3-------------------3------3-------------------3----------3-----------------|
G|---2-------------------0----------0------0--------2----------0-----------------|    x1
D|---0----------------------------------------------0----------------------------|
A|-------------------------------------------------------------------------------|
D|-------------------------------------------------------------------------------|


_________________________________________________________________________________________________________________________



CHORUS(DISTORTION):

 Well this is         NOT for real, AFFRAID to feel         I just        HIT the floor, Dont ASK for more

e|---------------------x---------------x-----------------------------------x-------------------x-------------------------|
b|---------------------x---------------x-----------------------------------x-------------------x-------------------------|
G|---------------------x---------------x-----------------------------------x-------------------x-------------------------|
D|---------------------5---------------5-----------------------------------5-------------------5-------------------------|
A|---------------------5---------------5---------0--5--7-----5--0----------5-------------------5--------0--5--7----5--0--|
D|---------------------5---------------5-----------------------------------5-------------------5-------------------------|

 I'm            WASTING______MY______time            I'm       WASTING______MY______time

e|------------------x--------x------------------------------------x---------x------------------------------|
b|------------------x--------x------------------------------------x---------x------------------------------|
G|------------------x--------x------------------------------------x---------x------------------------------|
D|------------------9--------9------------------------------------9---------9------------------------------|
A|------------------9--------9---------0--9--12-----9--0----------9---------9-----------0--9--12----9--0---|
D|------------------9--------9------------------------------------9---------9------------------------------|

 You can't           STOP the feeling, there IS no reason        Just      MAKE the call, and TAKE it all           

e|---------------------x---------------------x------------------------------x------------------x-------------------------|
b|---------------------x---------------------x------------------------------x------------------x-------------------------|
G|---------------------x---------------------x------------------------------x------------------x-------------------------|
D|---------------------5---------------------5------------------------------5------------------5-------------------------|
A|---------------------5---------------------5-------0--5--7-----5--0-------5------------------5--------0--5--7----5--0--|
D|---------------------5---------------------5------------------------------5------------------5-------------------------|

 again__________________________________________________________    Whoa, ho, again______________________________________

e|-----x------x------x------x------x------x------x------x------x---------------------------------------------------------|
b|-----x------x------x------x------x------x------x------x------x---------------------------------------------------------|
G|-----x------x------x------x------x------x------x------x------x---------------------------------------------------------|
D|-----7------7------7------7------7------7------7------7------7---------------------------------------------------------|
A|-----7------7------7------7------7------7------7------7------7---------------------------------------------------------|
D|-----7------7------7------7------7------7------7------7------7---------------------------------------------------------|


_________________________________________________________________________________________________________________________

Interlude(Intro clean):

e|-x---0---x-------------5----------x---0----x--------------5--0---------x---0---x-----------5-----------x---0---x-------|
b|-3-------3---3-----------3--0-----3--------3---3---------------3---0---3-------3---3-----------3---0---3-------3-------|
G|-2-------0-------0----------------2--------0-------0-------------------2-------0-------0---------------2-------0-------|
D|-0-------0------------------------0--------0---------------------------0-------0-----------------------0-------0-------|
A|-0-------0------------------------0--------0---------------------------0-------0-----------------------0-------0-------|
D|-0-------0------------------------0--------0---------------------------0-------0-----------------------0-------0-------|


_________________________________________________________________________________________________________________________


VERSE 2(CLEAN):

     Months went by with us pre-tending__________ .
     When did our light turn from green to red___ .

e|------------0------------------------5------0----------------------------------|
b|---3-------------------3------3------------------------------------------------|
G|---2-------------------0----------0------0-------------------------------------|    x2
D|---0---------------------------------------------------------------------------|
A|-------------------------------------------------------------------------------|
D|-------------------------------------------------------------------------------|

e|---------0--------------------5------0------------0----------------------------|
b|---3--------------3----3-----------------3-----------------------3-------------|
G|---2--------------0--------0------0------2----2--------2----0----0-------------|    x1
D|---0-------------------------------------0-------------------------------------|
A|-------------------------------------------------------------------------------|
D|-------------------------------------------------------------------------------|


  I took a chance and left you standing_____ .
    Lost the will to do this once again_____ .

e|------------0------------------------5------0----------------------------------|
b|---3------------------3------3-------------------------------------------------|
G|---2------------------0----------0------0--------------------------------------|    x2
D|---0---------------------------------------------------------------------------|
A|-------------------------------------------------------------------------------|
D|-------------------------------------------------------------------------------|

e|------------0-------------------------5------0----------0----------------------|
b|---3-------------------3------3-------------------3----------3-----------------|
G|---2-------------------0----------0------0--------2----------0-----------------|    x1
D|---0----------------------------------------------0----------------------------|
A|-------------------------------------------------------------------------------|
D|-------------------------------------------------------------------------------|

_________________________________________________________________________________________________________________________



CHORUS 2(DISTORTION):

 Well this is         NOT for real, AFFRAID to feel         I just        HIT the floor, Dont ASK for more

e|---------------------x---------------x-----------------------------------x-------------------x-------------------------|
b|---------------------x---------------x-----------------------------------x-------------------x-------------------------|
G|---------------------x---------------x-----------------------------------x-------------------x-------------------------|
D|---------------------5---------------5-----------------------------------5-------------------5-------------------------|
A|---------------------5---------------5---------0--5--7-----5--0----------5-------------------5--------0--5--7----5--0--|
D|---------------------5---------------5-----------------------------------5-------------------5-------------------------|

 I'm            WASTING______MY______time            I'm       WASTING______MY______time

e|------------------x--------x------------------------------------x---------x------------------------------|
b|------------------x--------x------------------------------------x---------x------------------------------|
G|------------------x--------x------------------------------------x---------x------------------------------|
D|------------------9--------9------------------------------------9---------9------------------------------|
A|------------------9--------9---------0--9--12-----9--0----------9---------9-----------0--9--12----9--0---|
D|------------------9--------9------------------------------------9---------9------------------------------|

 You can't           STOP the feeling, there IS no reason        Just      MAKE the call, and TAKE it all           
[ Tab from: http://www.guitartabs.cc/tabs/d/default/wasting_my_time_tab_ver_13.html ]
e|---------------------x---------------------x------------------------------x------------------x-------------------------|
b|---------------------x---------------------x------------------------------x------------------x-------------------------|
G|---------------------x---------------------x------------------------------x------------------x-------------------------|
D|---------------------5---------------------5------------------------------5------------------5-------------------------|
A|---------------------5---------------------5-------0--5--7-----5--0-------5------------------5--------0--5--7----5--0--|
D|---------------------5---------------------5------------------------------5------------------5-------------------------|

 again__________________________________________________________    Whoa, ho, again______________________________________

e|-----x------x------x------x------x------x------x------x------x---------------------------------------------------------|
b|-----x------x------x------x------x------x------x------x------x---------------------------------------------------------|
G|-----x------x------x------x------x------x------x------x------x---------------------------------------------------------|
D|-----7------7------7------7------7------7------7------7------7----9-7--------------------------------------------------|
A|-----7------7------7------7------7------7------7------7------7--------7-9-7--------------------------------------------|
D|-----7------7------7------7------7------7------7------7------7--------------7-9----------------------------------------|

_________________________________________________________________________________________________________________________

SOLO(DISTORTION):

e|-----------------------------------------------------------------------------------------------------------------------
b|-----------------------------------------------------------------------------------------------------------------------
G|-----------------------------------------------------------------------------------------------------------------------    
D|-----------------------------------------------------------------------------------------------------------------------
A|---5--5-7----5----7-5--7-5-5-5--7/9---9-9-------9----9/10--9----------0----4------5\2---------0------2-----------------
D|-----------------------------------------------------------------------------------------------------------------------

  -----------------------------------------------------------------------------------------------------------------------
  --------------------------------------------------------------------------------7--8--7-----7-8------------------------
  ----------------------------------------------------------------7--7--x--9---9-----------------------------------------   
  ------------2------/5--4----4/5/7-7-7-7-7-5-4-5-4-5/7--------7---------------------------------------------------------
  ---4--2-----0----------------------------------------------------------------------------------------------------------
  -----------------------------------------------------------------------------------------------------------------------

  -----------------------------------------------------------------------------------------------------------------------|
  ---12----12----(12)--10---------8-------7---8---8-----7------7-------(7)-----------------------------------------------|
  ------------------------------------------------------------------------------------7-------(7)------------------------|    
  ---------------------------------------------------------------------------9-------------------------------------------|
  -----------------------------------------------------------------------------------------------------------------------|
  -----------------------------------------------------------------------------------------------------------------------|

__________________________________________________________________________________________________________________________

INTERLUDE 2(CLEAN):

                                                                        I see you waiting______________

e|-----0---------------5---------------0---------------5---0---------------0---------------5-----------|
b|-3-------3---3-----------3--0----3-------3---3---------------3---0---3-------3---3-----------3---0---|
G|-2-------0-------0---------------2-------0-------0-------------------2-------0-------0---------------|
D|-0-------------------------------0-----------------------------------0-------------------------------|
A|-----------------------------------------------------------------------------------------------------|
D|-----------------------------------------------------------------------------------------------------|

   Looks so lonely________________I see you waiting_____________________________________________________           

e|-----0--------------5--0-------------0---------------5----------------0---------------5--0-----------|
b|-3-------3---3-----------3--0----3-------3---3------------3---0---3-------3---3-------------3---0----|
G|-2-------0-------0---------------2-------0------0-----------------2-------0-------0------------------|
D|-0-------------------------------0--------------------------------0----------------------------------|
A|-----------------------------------------------------------------------------------------------------|
D|-----------------------------------------------------------------------------------------------------|

   I see you waiting_________________________                                                                         

e|-----0--------------5---------------0------|
b|-3-------3---3----------3--0----3-------3--|
G|-2-------0-------0--------------2-------0--|
D|-0------------------------------0----------|
A|-------------------------------------------|
D|-------------------------------------------|

__________________________________________________________________________________________________________________________


CHORUS 3(DISTORTION):

 Well this is         NOT for real, AFFRAID to feel         I just        HIT the floor, Dont ASK for more

e|---------------------x---------------x-----------------------------------x-------------------x-------------------------|
b|---------------------x---------------x-----------------------------------x-------------------x-------------------------|
G|---------------------x---------------x-----------------------------------x-------------------x-------------------------|
D|---------------------5---------------5-----------------------------------5-------------------5-------------------------|
A|---------------------5---------------5---------0--5--7-----5--0----------5-------------------5--------0--5--7----5--0--|
D|---------------------5---------------5-----------------------------------5-------------------5-------------------------|

 I'm            WASTING______MY______time            I'm       WASTING______MY______time

e|------------------x--------x------------------------------------x---------x------------------------------|
b|------------------x--------x------------------------------------x---------x------------------------------|
G|------------------x--------x------------------------------------x---------x------------------------------|
D|------------------9--------9------------------------------------9---------9------------------------------|
A|------------------9--------9---------0--9--12-----9--0----------9---------9-----------0--9--12----9--0---|
D|------------------9--------9------------------------------------9---------9------------------------------|

 You can't           STOP the feeling, there IS no reason        Just      MAKE the call, and TAKE it all           

e|---------------------x---------------------x------------------------------x------------------x-------------------------|
b|---------------------x---------------------x------------------------------x------------------x-------------------------|
G|---------------------x---------------------x------------------------------x------------------x-------------------------|
D|---------------------5---------------------5------------------------------5------------------5-------------------------|
A|---------------------5---------------------5-------0--5--7-----5--0-------5------------------5--------0--5--7----5--0--|
D|---------------------5---------------------5------------------------------5------------------5-------------------------|

  I'm  wasting___________my____ time,_______I'm wasting______my will to_____Well this is

e|-----x-----x---x---x---x---x------------------x------x--x--x--x--x----x----x----x-------x---|
b|-----x-----x---x---x---x---x------------------x------x--x--x--x--x----x----x----x-------x---|
G|-----x-----x---x---x---x---x------------------x------x--x--x--x--x----x----x----x-------x---|
D|-----9-----9---9---9---9---9--0---------------9------9--9--9--9--9----9----9----9-------9---|
A|-----9-----9---9---9---9---9----9--12--9--0---9------9--9--9--9--9----9----9----9-------9---|
D|-----9-----9---9---9---9---9------------------9------9--9--9--9--9----9----9----9-------9---|

  Not  for  real____a-fraid  to  feel          I just  hit the floor____,don't ask for more______            I'm

e|-x----x-------x-------x-----x-------------------------x---x------x------------x---x----------x-------x------x---|
b|-x----x-------x-------x-----x-------------------------x---x------x------------x---x----------x-------x------x---|
G|-x----x-------x-------x-----x-------------------------x---x------x------------x---x----------x-------x------x---|
D|-5----5-------5-------5-----5-------------------------5---5------5------------5---5----------5-------5------5---|
A|-5----5-------5-------5-----5---0--5--7-----5--0------5---5------5------------5---5----------5-------5------5---|
D|-5----5-------5-------5-----5-------------------------5---5------5------------5---5----------5-------5------5---|

      Was-ting_____my______time,____________I'm      Was-ting___________my__________time.               You can't____

e|--x----x-----x---x----x------x-----x-------x--------x----x----x---x----x----x------x-----x--------x--------------------|
b|--x----x-----x---x----x------x-----x-------x--------x----x----x---x----x----x------x-----x--------x--------------------|
G|--x----x-----x---x----x------x-----x-------x--------x----x----x---x----x----x------x-----x--------x--------------------|
D|--9----9-----9---9----9------9-----9-------9--------9----9----9---9----9----9------9-----9--------9--------------------|
A|--9----9-----9---9----9------9-----9-------9-------12---12----9---9---12---12-----12-----9-------12--------------------|
D|--9----9-----9---9----9------9-----9-------9--------9----9----9---9----9----9------9-----9--------9--------9--12-------|

   stop the fee-ling there is no rea-son______.  Just make the call___, and take it all___________ .
e|--x----x---x----x----x---x---x----x--x--x-----x--x---x---x---x----x---x----x---x--x---x---x---x------------------------|
b|--x----x---x----x----x---x---x----x--x--x-----x--x---x---x---x----x---x----x---x--x---x---x---x------------------------|
G|--x----x---x----x----x---x---x----x--x--x-----x--x---x---x---x----x---x----x---x--x---x---x---x------------------------|
D|--5----5---5----5----5---5---5----5--5--5-----5--5---5---5---5----5---5----5---5--5---5---5---5------------------------|
A|--5----5---7----5----5---5---5----5--5--5-----5--5---5---5---7----5---5----5---5--7---5---5---5------------------------|
D|--5----5---5----5----5---5---5----5--5--5-----5--5---5---5---5----5---5----5---5--5---5---5---5------------------------|

  a-gain______________________________________ . Whoa, ho,___

e|---x---x---x---x---x---x---x---x---x----x------------------|
b|---x---x---x---x---x---x---x---x---x----x------------------|
G|---x---x---x---x---x---x---x---x---x----x------------------|
D|---7---7---7---7---7---7---7---7---7----7------------------|
A|---7---7---7---7---7---7---7---7---7----7------------------|
D|---7---7---7---7---7---7---7---7---7----7------------------|

__________________________________________________________________________________________________________________________

OUTRO(CLEAN):

  A-gain__________________________.

e|-----0---------------5---------------0---------------5---0---------------0---------------5-------------------0---------3|
b|-3-------3---3-----------3--0----3-------3---3---------------3---0---3-------3---3-----------3---0--------3-----3------3|
G|-2-------0-------0---------------2-------0-------0-------------------2-------0-------0-----------------2-----------0---0|
D|-0-------------------------------0-----------------------------------0------------------------------0------------------0|
A|-----------------------------------------------------------------------------------------------------------------------0|
D|-----------------------------------------------------------------------------------------------------------------------0|

    Order of song:
	
	Intro
	Verse
	Chorus
	Interlude
	Verse2
	Chorus2
	Solo
	Interlude2
	Chorus3
	Outro


There you go that is all of it, this is a great 
song and its a lot of fun to play if you have 
any questions or comments please email me at
            me_37_@hotmail.com

-Jaron
Comments