Default - Wasting My Time Chords & Tabs

 

Wasting My Time Chords & Tabs

Default Chords & Tabs

Version: 10 Type: Tab 0 ratings
1 star 2 stars 3 stars 4 stars 5 stars
comments

Wasting My Time Tab

Band: Default  
Song: Wasting My Time  
Tuning: Standard
Tabber: Bareman5000


Intro
e-----------------------------------------------------------
B-----------------------------------------------------------
G-----------------------------------------------------------
D-----------------------------------------------------------
A-----------------------------------------------------------
E---3(Volume Swell)-----------------------------------------

Verse
e----0---5--------------------------------------------------
B--3---2---3-0----------------------------------------------
G--2---0----------------------------------------------------
D--0--------------------------------------------------------
A-----------------------------------------------------------
E-----------------------------------------------------------
[ Tab from: http://www.guitartabs.cc/tabs/d/default/wasting_my_time_tab_ver_10.html ]
Chorus
e-----------------------------------------------------------
B-------------------------------------------(continued)-----
G-----------------------------------------------------------
D--5-5-5-0-5-7-0-5-5-5-0-5-7-0-9-9-9-0-9-11-0-9-9-9-5-5-5-0-
A--5-5-5-------5-5-5-------9-9-9--------9-9-9-------5-5-5---
E--5-5-5-------5-5-5-------9-9-9--------9-9-9-------5-5-5---
                              (Not enought room to fit all)

e5-7-0-5-5-5-0-5-7-0-5-5-5-0-5-7-0-7-7-7-0-7-9-0-7-7-7------
B------5-5-5---------5-5-5---------7-7-7---------7-7-7------
G------5-5-5---------5-5-5---------7-7-7---------7-7-7------
D-----------------------------------------------------------
A-----------------------------------------------------------
E-----------------------------------------------------------

e5-5-5------------------------------------------------------
B5-5-5------------------------------------------------------
G5-5-5------------------------------------------------------
D-----------------------------------------------------------
A-----------------------------------------------------------
E-----------------------------------------------------------

I do not yet have the solo, but I will try to put it on.
Comments