Default - Throw It All Away Chords & Tabs

 

Throw It All Away Chords & Tabs

Default Chords & Tabs

Version: 1 Type: Bass Tab 0 ratings
1 star 2 stars 3 stars 4 stars 5 stars
comments

Throw It All Away Bass Tab

Intro
G|----|
D|----|
A|----|
D|-7\-|

Verse   Part I
G|------------------------------------|
D|------------------------------------|
A|-5-5-55-3-2-2-22-2-0----------2-3-5-|
D|---------------------5-5-55-5-------|

Part II
G|---------------------------------------------|
D|---------------------------------------------|
A|-5-55-5-2-0-00-0-0---------------7-7-7-7-7-7-|
D|-------------------5-5-555-55-5-5------------|

Pre-Chorus
G|-------------------------|
D|-------------------------|
A|-2-2---------------------|
D|-----3-3-0-2h3h4-5h6-5h6-|
[ Tab from: http://www.guitartabs.cc/tabs/d/default/throw_it_all_away_btab.html ]
G|-------------------|
D|-------------------|
A|-2-2---------------|
D|-----3-3-2h3-0-0-0-|

Chorus
G|-------------------------------|
D|-------------------------------|
A|-5-5------------5-5------------|
D|-----0-3-4-5-6-0---0-6-5-4-3-0-|

G|---------------------------------------------------|
D|---------------------------------------------------|
A|-5-5------------3-3-3-3-3-3-5-5-5-5-5-7-7-7-7-7-3~-|
D|-----0-3-4-5-6-0-----------------------------------|

Interlude
G|-----------------------------------|
D|-----------------------------------|
A|---------------------------3--3--3-|
D|-5--5--5--7--7--7--3--3--3---------|

Tabbed by jess (Aka rocker82)
Comments