Default - Taking My Life Away Chords & Tabs

 

Taking My Life Away Chords & Tabs

Default Chords & Tabs

Version: 1 Type: Tab 0 ratings
1 star 2 stars 3 stars 4 stars 5 stars
comments

Taking My Life Away Tab

title: taking my life away
artist: default
album: elocation

tabbed by matt rosengarten



drop d tuning


1st verse						

e---5-----2-----------------------------------
b---5-----3-----------------------------------
g---7-----4-----5---5---------5---5-----------
d---7-----4-----5---5-----5---5---5-----5-----   x2
a---5-----2-----3---3h5---5---3---3h5---5-----
d-------------------------5-------------5-----

e---0-----2-----------------------------------
b---2-----3-----------------------------------
g---2-----4-----5---5---------5---5-----------
d---2-----4-----5---5-----5---5---5-----5-----
a---0-----2-----3---3h5---5---3---3h5---5-----
d-------------------------5-------------5-----


pre-chorus

e---0-----2-----------x-x-x-x--
b---2-----3-----------x-x-x-x--
g---2-----4-----5-----x-x-x-x--
d---2-----4-----5-----x-x-x-x--
a---0-----2-----3-----x-x-x-x--
d---------------------x-x-x-x--


chorus

e---x--------------------------
b---3--------------------------
g---2--------------------------
d---0-----5------2------5------   x2
a---0-----5------2------5------
d---0-----5------2------5------


2nd verse - same as 1st, but with a couple of riffs over the top

at 1:18

e--------------------
b--------------------
g-----9-7h9-7--------
d---7----------------
a--------------------
d--------------------

at 1:25

e--------------------
b--------------------
g---7----------------
d-----7h9-7----------
a--------------------
d--------------------

at 1:33

e----------------------------------
b---8p7h8-10-------8p7h8-10--------
g------------7--------------9-7----
d----------------------------------
a----------------------------------
d----------------------------------


pre-chorus - same as before but with this over the top


e-----10-----10-----10-----10-----
b---8----7-8----7-8----7-8--------
g---------------------------------
d---------------------------------
a---------------------------------
d---------------------------------


chorus


bridge
[ Tab from: http://www.guitartabs.cc/tabs/d/default/taking_my_life_away_tab.html ]
e----------------------------------------
b----------------------------------------
g---3--x-x-x-x--------------5--7--9--10--
d---3--x-x-x-x--3--x-x-x-x--x--x--x--x---   x2
a---1--x-x-x-x--3--x-x-x-x--3--5--7--8---
d---------------3--x-x-x-x---------------


solo
guitar 1

e------------------------------------------------------------------------
b------------------------------------------------------------------------
g------------------------------------------------------------------------
d------------------------------------------------------------------------
a---10--8p7h8--10--8p7h8--10--8p7h8--10--8p7h8p7-------------------------
d------------------------------------------------10-----9h10-10---5-10---

guitar 2

e------------------------------------------------------------------------
b------------------------------------------------------------------------
g---3--x-x-x-x-----------------------------------5------------5----------
d---3--x-x-x-x------------3--x-x-x-x-------------x------------x----------
a---1--x-x-x-x------------3--x-x-x-x-------------3------------3----------
d-------------------------3--x-x-x-x-------------------------------------

guitar 1

e----------------------------------------------------------------------------
b----------------------------------------------------------------------------
g----------------------------------------------------------7-----------------
d-------------------------------------------------10-------------------------
a---10--8p7h8--10--8p7h8--10--8p7h8--10--8p7h8p7-----------------------------
d----------------------------------------------------------------------------

guitar 2

e----------------------------------------------------------------------------
b----------------------------------------------------------------------------
g---3--x-x-x-x------------------------------------5---------7----5-4-5-7-----
d---3--x-x-x-x------------3--x-x-x-x--------------x----5----x----------x-----
a---1--x-x-x-x------------3--x-x-x-x--------------3----5----5----------5-----
d-------------------------3--x-x-x-x-------------------5---------------------


pre-chorus 3

e---5-----2------------------
b---5-----3------------------
g---7-----4-----5-----7------
d---7-----4-----5-----7------
a---5-----2-----3-----5------
d----------------------------


chorus


outro

e----------------------
b----------------------
g---------------7------
d---5-----5-----7------
a---5-----5-----5------
d---5-----5------------

Comments