Default - Sick And Tired Chords & Tabs

 

Default Chords & Tabs

Version: 1 Type: Tab 0 ratings
1 star 2 stars 3 stars 4 stars 5 stars
comments

Sick And Tired Tab

   
Sick & Tired-Default
The Fallout

Drop D:
D A D G B E

* = pm
( ) = harmonic

Intro:

e-----------------------------------------------------------------
b-3---------------------------------------------------------------
g-2---------------------------------------------------------------
d-0---------------------------------------------------------------
a-0---------------------------------------------------------------
d-0---------------------------------------------------------------

gtr. 1&2

e-----------------------------------------------------------------
b-3---------------------------------------------------------------
g-2---------------------------------------------------------------
d-0---------------------------------------------------------------
a-0---------------------------------------------------------------
d-0---------------------------------------------------------------

gtr. 3 w/ wah as filter

e-----------------------------------------------------------------
b-----------------------------------------------------------------
g----5---4~~~~----5-5-4~~~---------5---4~~~~---5-5-4~~~-----------
d------3--------3----------3br-------3-------3-----------3br------
a--------------------------------0----------------------------5\--
d-----------------------------------------------------------------
                *                *   *       *

Verse:

e-----------------------------------------------------------------
b-------------3---------------------------------------------------
g------------2--------------(7)----(12)---------------------------
d-0---------0-------------------------------0---------------------
a-0--------0----------------------------------0-------------------
d-0-------0-------------------------------------0-----------------

e-----------------------------------------------------------------
b-----------------------------------------------------------------
g----------------------------------------------12---11~~~---------
d-0------------------------------------------0----0-------10-12~~-
a-0---------------------------------------------------------------
d-0---------------------------------------------------------------

Pre Chorus:

e-----------------------------------------------------------------
b-3-----------x-x--3--3----------3--3----------x-x--3--3----------
g-2-----------x-x--2--2----------2--2----------x-x--2--2----------
d-0-----------x-x--0--0----------0--0----------x-x--0--0-----x\---
a-0-----------x-x--0--0----------0--0----------x-x--0--0-----x\---
d-0-----------x-x--0--0----------0--0----------x-x--0--0-----x\---

Chorus:

gtr. 1

e-----------------------------------------------------------------
b-----------------------------------------------------------------
g1010---7---7-1010---3---3-1010---12---12-12----------------------
d1010---7---7-1010---3---3-1010---12---12-12--8---8---10---10\----
a-8-8---5---5--8-8---1---1--8-8---10---10-10--8---8---10---10\----
d---------------------------------------------8---8---10---10\----

gtr. 2

e-----------------------------------------------------------------
b-------------------11--11-------------------11--11---13----13----
g1010---7---7-1010---x---x-1010---12---1212---x---x----x-----x----
d-x-x---x---x--x-x---8---8--x-x----x----x-x---8---8---10----10----
a-8-8---5---5--8-8----------8-8---10---1010-----------------------
d-----------------------------------------------------------------

gtr. 1
[ Tab from: http://www.guitartabs.cc/tabs/d/default/sick_and_tired_tab.html ]
e-----------------------------------------------------------------
b-----------------------------------------------------------------
g1010---7---7-1010---3---3-1010---12---12-12----------------------
d1010---7---7-1010---3---3-1010---12---12-12--7----7--7---7--7--7-
a-8-8---5---5--8-8---1---1--8-8---10---10-10--7----7--7---7--7--7-
d---------------------------------------------7----7--7---7--7--7-

gtr. 2

e-----------------------------------------------------------------
b-------------------11--11----------------------------------------
g1010---7---7-1010---x---x-1010---12---1212----14---14-14---15-15-
d-x-x---x---x--x-x---8---8--x-x----x----x-x-----x----x--x----x--x-
a-8-8---5---5--8-8----------8-8---10---1010----12---12-12---13-13-
d-----------------------------------------------------------------

Verse 2:

w/ leslie effect

e----0-----------------13---12------------------------------------
b----3------------------x----x----------------13----10------------
g----2-----------------10----9----------------10----10------------
d----0------------------------------------------------------------
a-----------------------------------------------------------------
d-----------------------------------------------------------------

Bridge:

e-----------------------------------------------------------------
b-----------------------------------------------------------------
g------------------------------------------------5---7\5----------
d---------------------3-3--0----3-3--0----x-x----x---x-x--5-------
a-3----5--3-----------3-3--0----3-3--0----x-x----3---5\3--5-------
d-----------5b~~~~~---3-3--0----3-3--0----x-x-------------5-----0-

e-----------------------------------------------------------------
b-----------------------------------------------------------------
g----------------------------5---7\5------------------------------
d-3-3--0----3-3--0----x-x----x---x-x--5-------3-3--0----3-3--0----
a-3-3--0----3-3--0----x-x----3---5\3--5-------3-3--0----3-3--0----
d-3-3--0----3-3--0----x-x-------------5-----0-3-3--0----3-3--0----

                                clean gtr comes in

e----------------------------------0------0-----0----3------------
b-----------------------------------------------------------------
g------------------------------------3------3----------5----------
d--------------------------------------3------3----------5--------
a-x-x-----7--8--8---10---5---7\--1----------------3---------------
d-x-x-----7--8--8---10---5---7\-----------------------------------

e-3-----3-----3----0------0------0-----3------3-------------------
b-----------------------------------------------------------------
g---5-----5----------3------3------------5------------------------
d-----5-----5----------3------3------------5----------------------
a----------------1------------------3-----------------------------
d-----------------------------------------------------------------

Mini Outro Solo:

e-----------------------------------------------------------------
b-0---------------------------------------------10----10----10----
g-0-----10-10-------------10-9-/12-10~~~-10-12--12b---12b---12b---
d-------------10-h12~~~-------------------------------------------
a-----------------------------------------------------------------
d---x\------------------------------------------------------------

e-10--10----10--10-----10--10---12----13----13----12----15--------
b-13b-13b---13b-13b----13b-13b--15b---16b---16b---15b---18b-----18
g-----------------------------------------------------------------
d-----------------------------------------------------------------
a-----------------------------------------------------------------
d-----------------------------------------------------------------

e-----------------------------------------------------------------
b-----------------------------------------------------------------
g-10~~~~~~-12-br------14\-----------------------------------------
d----------------------x------------------------------------------
a---------------------12\-----------------------------------------
d------------------x\---------------------------------------------


thatís all

trevor jones
timmy91199@yahoo.ca
Comments