Default - One Late Night Chords & Tabs

 

One Late Night Chords & Tabs

Default Chords & Tabs

Version: 2 Type: Tab 0 ratings
1 star 2 stars 3 stars 4 stars 5 stars
comments

One Late Night Tab

E--7-5-----------------------------7-5---------
B-------8-7-----3/5-3---------------------8-7--
G------------------------4-2-------------------
D----------------------------------------------
A----------------------------------------------
E----------------------------------------------
[ Tab from: http://www.guitartabs.cc/tabs/d/default/one_late_night_tab_ver_2.html ]
E----------------------------------------------
B---3/5-3--------------------------------------
G----------------------------------------------
D------------2-0---2-0-4-2--0------------------
A---------------------------------2--0-2-4-----
E----------------------------------------------

E--------------------5-------------------------
B--------------5/7-----7p5---------------------
G------2-4-------------------5/3---------------
D-0-2------------------------------4-----------
A----------------------------------------------
E----------------------------------------------
Comments