Default - One Late Night Chords & Tabs

 

One Late Night Chords & Tabs

Default Chords & Tabs

Version: 1 Type: Tab 0 ratings
1 star 2 stars 3 stars 4 stars 5 stars
comments

One Late Night Tab

   
Default - One Late Night

Standard Tuning

This is a really good song, and sounds great acoustic or electric
                    
Intro 
 
Dsus  D      Asus4          Cadd9       G
[ Tab from: http://www.guitartabs.cc/tabs/d/default/one_late_night_tab.html ]
--3--2--0--0------0-------------0-------3--
--3--3--2--3--------3-------------3-----3--
--2--2--0--2----------2-------0---------0--
--0--0--0--2----2-----------3-----------0--
-----------0--------------2-------------2--
----------------------------------------3--

Verse

Dsus D Asus4 Cadd9 G


Chorus

  Dsus  Asus4    Bsus      G

--3--2------------2--------3--
--3--3----3-------3--------3--
--2--2----2-------4--------0--
--0--0----2-------4--------0--
----------0-------2--------2--
------------------x--------3--

thats all there is to it...questions? email foskey@purdue.edu

Chris Foskey
Comments