Default - Live A Live Chords & Tabs

 

Live A Live Chords & Tabs

Default Chords & Tabs

Version: 1 Type: Tab 0 ratings
1 star 2 stars 3 stars 4 stars 5 stars
comments

Live A Live Tab

   
Song: Live a Lie
Artist: Default
Album: The fallout

Tuning: Normal Tuning (E A D G B E)


Chords:

Dsus2    Fmaj7      G6        Bb5        D5
xxx23x   13321x    35543x     x133xx     000000

C5       A5
X355xx   x022xx


Intro

   Dsus2                     Fmaj7                     Dsus2                   Fmaj7           G6
                             *T                                                T
                             let ring...............|                          let ring....|
Rhy.Fig.1                                                                                    End Rhy.Fig.1
----------------------------|------------------------|------------------------|--------------------------------|
----------------------------|------1-----------------|------------------------|--------------------------------|
----2----2-2-2---5-------0--|------2--------2h0-0--0-|--2-----2-2-2--5------0-|------2--2--2--2hs4-4-4-4-4-4-4-|
----0----0-0-0---0---3------|------3-----3------3----|--0-----0-0-0--0--3-----|------3--3--3--3hs5-5-5-5-5-5-5-|
----0-----------------------|------------------------|------------------------|--------------------------------|
----------------------------|--1---------------------|------------------------|--1-----------------------------|
                             *T= Thumb on 6th string

Dsus2                       Fmaj7                       Dsus2                     Fmaj7        G6
                            T-----------------------|                              T--------------------------|
                                                       Rhy.Fig.2                                  End Rhy.Fig.2
---0-----------------------|------0------0--0--0---0--|-0-------------------------|-----0-0-0--0---0---0--0--0-|
---3-----------------------|------1------1--1--1---1--|-3-------------------------|-----1-1-1--3---3---3--3--3-|
---2-----2-2-2--5-------0--|------2------2--2--2---2--|-2-----2--2--2---5------0--|-----2-2-2--4---4---4--4--4-|
---0-----0-0-0--0---3------|-3----3------3--3--3---3--|-0-----0--0--0---0--3------|-3---3-3-3--5---5---5--5--5-|
---0-----------------------|-3----3------3--3--3---3--|-0-------------------------|-3---3-3-3--5---5---5--5--5-|
---------------------------|-1----1------1--1--1---1--|---------------------------|-1---1-1-1--3---3---3--3--3-|

Verses
Rhy.Fig.3
(not perfect timing)

Dsus2                                                      Fmaj7
                                                           T
                                                           let ring-------------------------------------------|
----------------------------------------------------------|-------------------------*-------------------------|
----------------------------------------------------------|---------1-----------------------------------------|
--*2--------------------------------5---------------0-----|---------2-------------------------2h0----0-----0--|
---0--------------------------------0-------3-------------|---------3-------------------3---------------------|
--*0------------------------------------------------------|---------------------------------------------------|
----------------------------------------------------------|-1-------------------------------------------------|


Dsus2                                                      Fmaj7
                                                           T
                                                           let ring----------|             End Rhy.Fig.3--|
----------------------------------------------------------|-----------------------------------------------|
----------------------------------------------------------|-----------------------------------------------|
---2--------------------------------5--------------0------|--------2---2--2--2hs4--4--4--5--4--4--4-------|
---0--------------------------------0-------3-------------|--------3---3--3--3hs5--5--5--5--5--5--5-------|
----------------------------------------------------------|-----------------------------------------------|
----------------------------------------------------------|-1---------------------------------------------|

(play again after above measures on lyrics 'take or leave')

Then

Dsus2                                                     Fmaj7                  G6
                                                          T----------------------------------------------|
--0------------------------------------------------------|-0-----------0--------0---0--0--0--0--0--0--0--|
--3------------------------------------------------------|-1-----------1--------1---3--3--3--3--3--3--3--|
--2------------------------------------------------------|-2-----------2--------2---4--4--4--4--4--4--4--|
--0------------------------------------------------------|-3-----------3--------3---5--5--5--5--5--5--5--|
--0------------------------------------------------------|-3-----------3--------3---5--5--5--5--5--5--5--|
---------------------------------------------------------|-1-----------1--------1---3--3--3--3--3--3--3--|


Chorus
G6                                                       Fmaj7          C            let ring............|
T--------------------------------------------------------------------------------------------------------|
--0----0---0----0-----------------0------0-----X---X----|-0----0---0----0--------------------------------|
--3----3---3----3-----------------3------3-----X---X----|-1----1---1----1--------1------1----1h0---------|
--4----4---4----4-----------------4------4-----X---X----|-2----2---2----0--------0------0----------0-----|
--5----5---5----5-----------------5------5-----X---X----|-3----3---3----2--------2------2-------------0--|
--5----5---5----5-----------------5------5-----X---X----|-3----3---3----3--------3------3----------------|
--3----3---3----3-----------------3------3-----X---X----|-1----1---1----0--------0------0----------------|

G6                                                       Fmaj7          C            let ring............|
T--------------------------------------------------------------------------------------------------------|
--0----0---0----0-----------------0------0-----X---X----|-0----0---0----0--------------------------------|
--3----3---3----3-----------------3------3-----X---X----|-1----1---1----1--------1------1----1h0---------|
--4----4---4----4-----------------4------4-----X---X----|-2----2---2----0--------0------0----------0-----|
--5----5---5----5-----------------5------5-----X---X----|-3----3---3----2--------2------2-------------0--|
--5----5---5----5-----------------5------5-----X---X----|-3----3---3----3--------3------3----------------|
--3----3---3----3-----------------3------3-----X---X----|-1----1---1----0--------0------0----------------|

--0----0---X---X---0------------------------------------|-1-----1--------1------1----1----1-----1--------0--|
--3----3---X---X---1---------------------1h0------------|-1-----1--------1------1----1----1-----1--------3--|
--4----4---X---X---2--------------2-------------2---0---|-2-----2--------2------2----2----2-----2--------0--|
--5----5---X---X---2-----------------2------------------|-3-----3---3----3------3----3----3-----3-----------|
--5----5---X---X---0------------------------------------|-3-----3---3----3------3----3----3-----3-----------|
--3----3---X---X----------------------------------------|-1-----1---1----1------1----1----1-----1-----------|

--0----0---X--X---0-------------------------------------|-1------------|------------------------------------|
--3----3---X--X---1----------------------1h0------------|-1------------|------------------------------------|
--4----4---X--X---2---------------2-------------2---0---|-2------------|--2--------2---2---2----5-------0---|
--5----5---X--X---2------------------2------------------|-3------------|--0--------0---0---0----0----3------|
--5----5---X--X---0-------------------------------------|-3------------|--0---------------------------------|
--3----3---X--X-----------------------------------------|-1------------|------------------------------------|

[ Tab from: http://www.guitartabs.cc/tabs/d/default/live_a_live_tab.html ]
(you play this after chorus, then go back to verse)
T
let ring--------|     let ring-----------------|
F                    G
---------------0------------0-----0---------------------|
---------------0------------0-----0--------------------*|
-------2---2------2h/4--4---4--5--4---4-----------------|
-------3---3------3h/5--5------5-----------5------------|
-------------------------------------------------------*|
---1----------------------------------------------------|

Before dist. part
             T-----------------------------------------------------------|
 F            G6           G
--1---------|-------------------------|------------------------------------||
--1---------|-3------------3---3---3--|--3---3---3---3---3---3-----3---3---||
--2---------|-4------------4---4---4--|--4---4---4---4---4---4-----4---4---||
--3---------|-5------------5---5---5--|--5---5---5---5---5---5-----5---5---||
--3---------|-5------------5---5---5--|--5---5---5---5---5---5-----5---5---||
--1---------|-3------------3---3---3--|--3---3---3---3---3---3-----3---3---||

Bridge
(dist.)
Rhy.Fig.4-
-------------------------------------------------------|--1-----1-----1-----1-----1-----1-----1-----1-------|
--3----3----3-----3-----3-----3-----3-----3------------|--3-----3-----3-----3-----3-----3-----3-----3-------|
--3----3----3-----3-----3-----3-----3-----3------------|--2-----2-----2-----2-----2-----2-----2-----2-------|
--3----3----3-----3-----3-----3-----3-----3------------|--0-----0-----0-----0-----0-----0-----0-----0-------|
--1----1----1-----1-----1-----1-----1-----1------------|----------------------------------------------------|
-------------------------------------------------------|----------------------------------------------------|


                                    P.M                             P.M
--0----0----0-----0-----0-----0---------------0--------|-------0-----------0---------0-----0--------0-------|
--1----1----1-----1-----1-----1---------------1--------|-------1-----------1---------1-----1--------1-------|
--0----0----0-----0-----0-----0---------------2--------|-------2-----------2---------2-----2--------2-------|
--2----2----2-----2-----2-----2---------------2--------|-------2-----------2---------2-----2--------2-------|
--3----3----3-----3-----3-----3-----0---------0--------|-------0-----0-----0---------0-----0--------0-------|
-------------------------------------------------------|----------------------------------------------------|

-------------------------------------------------------|--1------1-----1-----1-----1-----1-----1-----1------|
--3-----3-----3-----3-----3-----3------3------3--------|--3------3-----3-----3-----3-----3-----3-----3------|
--3-----3-----3-----3-----3-----3------3------3--------|--2------2-----2-----2-----2-----2-----2-----2------|
--3-----3-----3-----3-----3-----3------3------3--------|--0------0-----0-----0-----0-----0-----0-----0------|
--1-----1-----1-----1-----1-----1------1------1--------|----------------------------------------------------|
-------------------------------------------------------|----------------------------------------------------|


Grt.2

--0-----0-----0-----0-----0-----0-----0-------0--------|--0------0------0-----0------0-----0------0-----0---|
--1-----1-----1-----1-----1-----1-----1-------1--------|--1------1------1-----1------1-----1------1-----1---|
--0-----0-----0-----0-----0-----0-----0-------0--------|--2------2------2-----2------2-----2------2-----2---|
--2-----2-----2-----2-----2-----2-----2-------2--------|--2------2------2-----2------2-----2------2-----2---|
--3-----3-----3-----3-----3-----3-----3-------3--------|--0------0------0-----0------0-----0------0-----0---|
-------------------------------------------------------|----------------------------------------------------|
|
|
|
|
|  The solo guitar                                                                             N.H---------|
-------------------------------------------------------|---------------------------------------------------|
-------------------------------------------------------|---------------------------------------------------|
-------------------------------------------------------|---------------------------------------------------|
-------------------------------------------------------|------------------------------------------7-----7--|
-------------------------------------------------------|---------------------------------------------------|
-------------------------------------------------------|---------------------------------------------------|


Solo


----------------------------------------|---------------------------------------|
--------6-------------------------6--8--|-8buh6--8----6h5h6-5--------6--8--8bu--|
---5--7-------0--5------5hs7--7---------|----------------------7----------------|
-7--------------------------------------|---------------------------------------|
----------------------------------------|---------------------------------------|
----------------------------------------|---------------------------------------|
|
                                                                     N.H...|
--8--8---------------------8--8-----|--------------------------------------|-----------------------------------/13-13-|
-----8bu1-----8bu1------6-----8bu1--|-8bu---8bu---8bu---------(8)--5-------|-----------6------------------------------|
------------------------------------|--------------------------------------|-----5--7--------0--5-----5hs7--7---------|
------------------------------------|---------------------------------7--7-|--7---------------------------------------|
------------------------------------|--------------------------------------|------------------------------------------|
------------------------------------|--------------------------------------|------------------------------------------|

--13h12-12-12-12buh10---------------------------|--------------------------------------------------|---------------------------------|
-----------------------13bu---------13-11-10-11-|--11----10----------------------------------------|----------------------10---------|
------------------------------------------------|------------12-----10--12-----------------10--12--|-12bu1h10--12----12------------9-|
------------------------------------------------|----------------------------------10--12----------|---------------------------------|
------------------------------------------------|--------------------------------------------------|---------------------------------|
------------------------------------------------|--------------------------------------------------|---------------------------------|

This is the backing guitar for the solo

  A5                                        Bb5                                     D5                              P.M
--0---0---0---0---0---0---0------0--------|--------------------------------------|--1-----1----1-------1--1--1--1-------|
--1---1---1---1---1---1---1------1--------|-3----3----3----3----3----3----3----3-|--3-----3----3-------3--3--3--3-------|
--2---2---2---2---2---2---2------2--------|-3----3----3----3----3----3----3----3-|--2-----2----2-------2--2--2--2-------|
--2---2---2---2---2---2---2------2--------|-3----3----3----3----3----3----3----3-|--0-----0----0-------0--0--0--0----0--|
--0---0---0---0---0---0---0------0--------|-1----1----1----1----1----1----1----1-|--------------------------------------|
------------------------------------------|--------------------------------------|--------------------------------------|

              P.M                P.M-------------------------------------------------------|                       P.M
---0-------------------0----------------------|---0--------------------------0----------0--|
---1-------------------1----------------------|---1--------------------------1----------1--|
---0-------------------0----------------------|---2--------------------------2----------2--|
---2-------------------2----------------------|---2--------------------------2----------2--|
---3-----------3-------3----------3-----0--0--|---0------------------0-------0----------0--|
----------------------------------------------|--------------------------------------------|

Thats the whole song, apart from the outro, but if you want me to tab it out for you I will
If this is not clear for some people then e-mail me and I will make it clearler one
This is Correct, don't believe me, play it and you'll see, this took me two days to tab out
its not as easy as it looks
comments to prsrule@hotmail.com
thanks
Comments