Default - Live A Lie Chords & Tabs

 

Live A Lie Chords & Tabs

Default Chords & Tabs

Version: 5 Type: Tab 0 ratings
1 star 2 stars 3 stars 4 stars 5 stars
comments

Live A Lie Tab

this is like one of my favorite intro's to play, and i saw none of the ones
on this site were right, so i decided to post it.

[ Tab from: http://www.guitartabs.cc/tabs/d/default/live_a_lie_tab_ver_5.html ]
|----x-------------------x--x------------|
|---3---------1---------1---1------------|
|--2----2-2-2-----0----2----2-----2p0---0|
|-0-------------3-----3-----3---3-----3--|
|--------------------3------3------------|
|----------------------------------------|

|----x-------------------x--x---x-x-x-x-x--x|
|---3---------1---------1---1---1-1-1-3-3--3|
|--2----2-2-2-----0----2----2---2-2-2-4-4--4|
|-0-------------3-----3-----3---3-3-3-5-5--5|
|--------------------3------3---3-3-3-5-5--5|
|-------------------------------------------|

Dont worry, this intro is very easy to play. heck, im only 13!

later,
Kevin T.
Comments