Default - Live A Lie Chords & Tabs

 

Live A Lie Chords & Tabs

Default Chords & Tabs

Version: 4 Type: Tab 0 ratings
1 star 2 stars 3 stars 4 stars 5 stars
comments

Live A Lie Tab

   
Live A lie-Default
The Fallout

gtr. 1&2:
E A D G B E

gtr. 3 capo 6th fret
(piano arr for gtr.)

( ) = harmonics

Intro:

Fig. 1

e----------------------------------------------
b-----------------------------1----------------
g---2----2-2--2--5-----0------2-------2p0-0-0--
d--0-----0-0--0--0--3---------3-----3-----3----
a-0--------------------------------------------
e-------------------------1--------------------

e-------------------------------------------------
b-------------------------------------------------
g-2---2-2--2--5-----0-----2--2-2-2/4-4-4-5-4-4-4--
d-0---0-0--0--0--3--------3--3-3-3/5-5-5-5-5-5-5--
a-------------------------------------------------
e----------------------1--------------------------

gtr. 1

e----------------------------------------------
b-----------------------------1----------------
g---2----2-2--2--5-----0------2-------2p0-0-0--
d--0-----0-0--0--0--3---------3-----3-----3----
a-0--------------------------------------------
e-------------------------1--------------------

gtr. 2

e-------------------------0---0----0---0-0--0--
b-3-----------------------1---1----1---1-1--1--
g-2------2-2--2--5-----0--2---2----2---2-2--2--
d-0------0-0--0--0--3-----3---3----3---3-3--3--
a-0-----------------------3---3----3---3-3--3--
e-------------------------1---1----1---1-1--1--

gtr. 1

e-------------------------------------------------
b-------------------------------------------------
g-2---2-2--2--5-----0-----2--2-2-2/4-4-4-5-4-4-4--
d-0---0-0--0--0--3--------3--3-3-3/5-5-5-5-5-5-5--
a-------------------------------------------------
e----------------------1--------------------------

gtr. 2

e----------------------0---0--0-0--0--0--0---0-0--
b----------------------1---1--1-1--3--3--3---3-3--
g-2---2-2--2--5-----0--2---2--2-2--4--4--4---4-4--
d-0---0-0--0--0--3-----3---3--3-3--5--5--5---5-5--
a-0--------------------3---3--3-3--5--5--5---5-5--
e----------------------1---1--1-1--3--3--3---3-3--

Verse:

e----------------------------------------------
b--------------------------1-------------------
g-2-----------5-----0------2----------2p0-0-0--
d-0-----------0--3---------3-------3------3----
a-0--------------------------------------------
e----------------------1-----------------------

e--------------------------------------------------
b--------------------------------------------------
g-2-----------5-----0------2--2-2-2/4-4-4-5-4-4-4--
d-0-----------0--3---------3--3-3-3/5-5-5-5-5-5-5--
a-0------------------------------------------------
e----------------------1---------------------------

Chorus:

x2
e-0----0---0---0-----0---0--------0----0---0----------------------
b-3----3---3---3-----3---3---x-x--1----1---1---1----1--1--1p0-----
g-4----4---4---4-----4---4---x-x--2----2---2---0----0--0------0---
d-5----5---5---5-----5---5---x-x--3----3---3---2----2--2--------0-
a-5----5---5---5-----5---5---x-x--3----3---3---3----3--3----------
e-3----3---3---3-----3---3---x-x--1----1---1---0----0--0----------

e-0----0--x-x---0---------------------1---1-----0----0-0---0--0-0-
b-3----3--x-x---1------------1p0------1---1-----1----1-1---1--1-3-
g-4----4--x-x---2-------2--------2-0--2---2-----0----0-0---0--0-0-
d-5----5--x-x---2---------2-----------3---3--3--3----3-3---3--3---
a-5----5--x-x---0---------------------3---3--3--3----3-3---3--3---
e-3----3--x-x-------------------------1---1--1--1----1-1---1--1---

Bridge:

gtr. 1
[ Tab from: http://www.guitartabs.cc/tabs/d/default/live_a_lie_tab_ver_4.html ]
e-----------------1-1-1-1-1-1-1-1-0-0-0-0-0-0---0---0---0---0-0-0-
b-3-3-3-3-3-3-3-3-3-3-3-3-3-3-3-3-1-1-1-1-1-1---1---1---1---1-1-1-
g-3-3-3-3-3-3-3-3-2-2-2-2-2-2-2-2-0-0-0-0-0-0---2---2---2---2-2-2-
d-3-3-3-3-3-3-3-3-0-0-0-0-0-0-0-0-2-2-2-2-2-2---2---2---2---2-2-2-
a-1-1-1-1-1-1-1-1-----------------3-3-3-3-3-3-0-0---0-0-0---0-0-0-
e-----------------------------------------------------------------

e-----------------1-1-1-1-1-1-1-1-0-0-0-0-0-0-0-0-0-0-0-0-0-0-0-0-
B-3-3-3-3-3-3-3-3-3-3-3-3-3-3-3-3-1-1-1-1-1-1-1-1-1-1-1-1-1-1-1-1-
G-3-3-3-3-3-3-3-3-2-2-2-2-2-2-2-2-0-0-0-0-0-0-0-0-2-2-2-2-2-2-2-2-
D-3-3-3-3-3-3-3-3-0-0-0-0-0-0-0-0-2-2-2-2-2-2-2-2-2-2-2-2-2-2-2-2-
a-1-1-1-1-1-1-1-1-----------------3-3-3-3-3-3-3-3-0-0-0-0-0-0-0-0-
e-----------------------------------------------------------------

gtr. 2

e-----------------------------------------------------------------
b-----------------------------------------------------------------
g-----------------------------------------------------------------
d----------------------------------------------------------(7)(7)-
a-----------------------------------------------------------------
e-----------------------------------------------------------------

Solo: w/ Bridge chords

Bb5                           D5

e-----------------------------------------------------------------
b-------6~~~--------------6-8-8brp6-8~~~-6p5h6-5-------6-8-8b~~~--
g---5-7------0-5~~~/7-7~~------------------------7~~~~------------
d-7---------------------------------------------------------------
a-----------------------------------------------------------------
e-----------------------------------------------------------------

C5                    A5

e-8----8--------------8-------------------------------
b-8b---8b---8br----6--8b---8b-8b-8b------r5-----------
g-----------------------------------------------------
d-------------------------------------------(7)-(7)---
a-----------------------------------------------------
e-----------------------------------------------------

Bb5                            D5

e-----------------------/13-13-13p12-12-12brp10-------------------
b-------6~~~------------------------------------13b~~-13-11-10-11-
g---5-7------0-5~~~/7-7~~-----------------------------------------
d-7---------------------------------------------------------------
a-----------------------------------------------------------------
e-----------------------------------------------------------------

C5                                   A5

e-----------------------------------------------------------------
b-11--10---------------------------------------------10-----------
g--------12~~~-10-12-----------10-12-12brp10-12---12------9-------
d------------------------10-12------------------------------------
a-----------------------------------------------------------------
e-----------------------------------------------------------------

Outro: gtr. 3 capo 6th fret (piano arr. for gtr.)

x2
e-2-----2--2-------2p0-----0-----0-------------------
b-3-----3--3-------3---3---1-----1--3---------3------
g-2-----2--2-------2-------0-----0--0---------0------
d-0---0----0----0-------------------0---------0------
a--------------------------3---3----2-----2-2----2---
e----------------------------------------------------

e-2---2----3---------3p2----0---0--------------------
b-3---3----0-----0---0------1---1---3---------1------
g-2---2----0---------0------0---0---0---------0------
d-0----------------2-----2---------------------------
a---------------------------3-------------3-3----3---
e----------------------------------------------------

e-2---2----3----------3----2-------0------------------------------
b-3---3----0-----0----------------1-------------------------------
g-2---2----0---------------------0--------------------------------
d-0--------2-------2------------x---------------------------------
a------------------------------3----------------------------------
e-----------------------------------------------------------------


thatís all

trevor jones
timmy91199@yahoo.ca
Comments