Default - Live A Lie Chords & Tabs

 

Live A Lie Chords & Tabs

Default Chords & Tabs

Version: 1 Type: Tab 0 ratings
1 star 2 stars 3 stars 4 stars 5 stars
comments

Live A Lie Tab

DEFAULT

LIVE A LIE

Album: The Fallout



  Guitar 1: clean guitar 
e-------------------------------------------------------|
B-------------------------------1-----------------------|
G----2---2-2-2----5-------------2----2p0----0----2------|
D----0---------------3--5-------3-----------3----0------|
A----0------------------------3-------------------------|
E-------------------------------------------------------|

e-------------------------------------------------------|
B-----------------------------1--1--1/3-----------------|
G----2---2-2-2----5-----------2--2--2/4-4-4h5p4--2p0----|
D----0---------------3--5-----3--3--3/5-----------------|
A----0-----------------------3--------------------------|
E-------------------------------------------------------|

  Chorus (Listen song for stumming pattern)

     2X                       2x
e-----3-----1--------|--3---0-----1------|
B-----3-----1--------|--3---1-----1------|
G-----4-----2----5---|--4---2-----2------|
D-----5-----3----5---|--5---2-----3------|
A-----5-----3----3---|--5---0-----3------|
E-----3-----1----x---|--3---------1------|

 
[ Tab from: http://www.guitartabs.cc/tabs/d/default/live_a_lie_tab.html ]
 Pre solo (strum Chords)
e--------------------------------------------------------|
B--------------------------------------------------------|
G------------7-------------------------------------------|
D----8-------7-----------10------------7-----------------|
A----8-------5-----------10------------7-----------------|
E----6-------------------8-------------5-----------------|



 
 Solo

e-------------------------------------------------------|
B-------------------------------------------------------|
G-----------------------------10-12-12h13p12-10-12-10---|
D----7h9-9/10--12-12-8-10/12----------------------------|
A-------------------------------------------------------|
E-------------------------------------------------------|

e-------------------------------------------------------|
B-----------------b13-b13----------13-b13-b13-b13-------|
G--9h10p9-8--9-10-b13-b13-12~~~-10----b13-b13-b13-12~~~~|
D-------------------------------------------------------|
A-------------------------------------------------------|
E-------------------------------------------------------|

e------------------------13-13-13p12-12\10-10\8-8h10----|
B-------------------------------------------------------|
G-----------10------------------------------------------|
D--7-8-8/10----10-10h12---------------------------------|
A-------------------------------------------------------|
E-------------------------------------------------------|

e-10-10-10p8-6-6-5-5h6-5-1-3-3/5-55-3-5-----------------|
B-------------------------------------------------------|
G-------------------------------------------------------|
D----------------------------------------3--------------|
A----------------------------------------3--------------|
E----------------------------------------5--------------|


tabbed by Evil Crow


any suggestions email me.

(evil_crow0066@hotmail.com)
Comments