Default - It Only Hurts Chords & Tabs

 

It Only Hurts Chords & Tabs

Default Chords & Tabs

Version: 1 Type: Tab

It Only Hurts Tab

The chords posted seem about perfect, but it didn't have this. This is my first 
at anything like this, so here goes....


h=hammer on
/=slide


e---------------------------------------------------------------------------|
B----6-6/8-6---------------------------6-6/8-6-----------5-6/8-8-6-5-3------|
G-------------5-5/7-5---------------------------5-5/7-5---------------------|
D----------------------5-5/7-5----------------------------------------------|
A-------------------------------8-7h8---------------------------------------|
E---------------------------------------------------------------------------|
[ Tab from: http://www.guitartabs.cc/tabs/d/default/it_only_hurts_tab.html ]
e---------------------------------------------------------------------------|
B----6-6/8-6----------------------------------------------------------------|
G-------------5-5/7-5-------------------------------------------------------|
D----------------------5-5/7-5----------------------------------------------|
A-------------------------------8-7h8---------------------------------------|
E---------------------------------------------------------------------------|

So, that sounds right to me. There's another guitar in the background playing the normal 
It sounds pretty good if you can get both guitars going. Good Luck.