Default - Faded Chords & Tabs

 

Faded Chords & Tabs

Default Chords & Tabs

Version: 2 Type: Tab 0 ratings
1 star 2 stars 3 stars 4 stars 5 stars
comments

Faded Tab

   
#----------------------------------PLEASE NOTE--------------------------------#
#This file is the author's own work and represents their interpretation of the#
#song. You may only use this file for private study, scholarship, or research.#
#-----------------------------------------------------------------------------#

Date:04/17/2004
------------------------------------------------------------------------------


          SONG: Faded
BAND OR ARTIST: Default
FROM THE ALBUM: The Fallout
TRANSCRIBED BY: Kyle
------------------------------------------------------------------------------

Guitar Tuning: D A D G B e

Intro/Chorus
e------------------------------------------------------------------|
B------------------------------------------------------------------|
G--7-77-7-6-7-----7-6-7--------------------------------------------|  
D--7-77-7-6-7--5--7-6-7--9-99-9-9---2-2-2--5-5-5-------------------|   
A--5-55-5-4-5--5--5-4-5--9-99-9-9---2-2-2--5-5-5-------------------|  
D--------------5---------9-99-9-9---2-2-2--5-5-5-------------------|  
[ Tab from: http://www.guitartabs.cc/tabs/d/default/faded_tab_ver_2.html ]
Bridge
e------------------------------------------------------------------|
B------------------------------------------------------------------|
G--7-77-7-6-7--9--7---7-6-7--9-7--7-6-7--999-11-12-14--------------|  
D--7-77-7-6-7--9--7---7-6-7--9-7--7-6-7--999-11-12-14--------------|   
A--5-55-5-4-5--7--5---5-4-5--7-5--5-4-5--777-9--10-12--------------|  
D------------------------------------------------------------------|  

Interlude/Solo
e------------------------------------------------------------------|
B------------------------------------------------------------------|
G----14~-----14~-----16-14-12-14-12-11-----------------------------|  
D-14-----14~-----14~-----------------------------------------------|   
A------------------------------------------------------------------|  
D------------------------------------------------------------------|  

e------------------------------------------------------------------|
B------------------------------------------------------------------|
G-------14~-----14~-----16-14-12-12-11-----------------------------|  
D-14-14-----14~-----14~----------------14-12-----------------------|   
A------------------------------------------------------------------|  
D------------------------------------------------------------------|  

| /  slide up
| \  slide down
| h  hammer-on
| p  pull-off
| ~  vibrato
| +  harmonic
| x  Mute note
Comments