Default - Deny Chords & Tabs

 

Deny Chords & Tabs

Default Chords & Tabs

Version: 9 Type: Tab 0 ratings
1 star 2 stars 3 stars 4 stars 5 stars
comments

Deny Tab

   
Artist: Default
Song: Deny
Album: The Fallout
Guitar Tabs

This is the real way to play the song everyone, in case you don't notice it's in 
drop D tuning.       Enjoy.

Intro Part 1 (2X)

E----------------------------------------------------------
B----------------------------------------------------------
G---12---10-----9----10--9----------2----0------4---5--4---
D----------------------------------------------------------
A----------------------------------------------------------
D-0----0-----10---10-------10-----3----3------5---5-------5

Intro Part 2 (4X) (When he starts singing)

E----------------------------------------------------------
B----------------------------------------------------------
G---12---10-----2----0-----9---10--9--------9----10--9-----
D----------------------------------------------------------
A----------------------------------------------------------
D-0----0------3----3----10---10------10---10----10----10---

Little Fill Part
[ Tab from: http://www.guitartabs.cc/tabs/d/default/deny_tab_ver_9.html ]
 C         Dsus4/9   C        Dsus4/9
"Can't you see this, hell I'm living,
 C      Dsus4/9     C
I'm not giving      up
  
  C       Dsus4/9
E-0-       E-0-
B-1-       B-3-
G-0-       G-0-
D-2-       D-4-
A-3-       A-5-
D-X-       D-0-

Next Riff (Chorus)

E---------------------
B---------------------
G-7--5--2-----5-------
D-5--3--0-----5--3--0-
A-5--3--0-----3--3--0-
D----------------3--0-

Verse

E---------------------------
B-3-3---3-3-----------------
G-2-2---2-2------12--10-----
D-0-0---0-0------12--10--10-
A-0-0---0-0------10--8---10-
D-0-0---0-0--------------10-

After 2nd chorus play the first part of the Intro again.

Little part before last chorus

E-----------------------------------
B-----------------------------------
G-----------------------------------
D-3-3-3-3-3-3-3-3-5-5-5-5-5-5-5-5-5-
A-3-3-3-3-3-3-3-3-5-5-5-5-5-5-5-5-5-
D-3-3-3-3-3-3-3-3-5-5-5-5-5-5-5-5-5-
 (Palm muted.......................)


The rest is just repeats of the other riffs. Hope you like the tab.  

Later,
Steve
Comments