Default - Deny Chords & Tabs

 

Deny Chords & Tabs

Default Chords & Tabs

Version: 7 Type: Tab 0 ratings
1 star 2 stars 3 stars 4 stars 5 stars
comments

Deny Tab

Title:   Deny
Artist:  Default


Re-Tabbed By:  T. Parker
Tuning: Drop D (DADGBe)


Intro:
     
e---3---1-----0--1-0----------------------------
B-----------------------------------------------
G----------------------------2--0----4---5-4----
D-----------------------------------------------
A-----------3--3-----3--------------------------   
D-0--0--------------------3---3----5--5------5--  X2

Verse:
  
e---3--1-----------------0--1-0-----------0---1-0-----
B-----------------------------------------------------
G-------------2--0------------------------------------
D-----------------------------------------------------
A----------------------3--3----3--------3---3------3--
D-0--0-----3--3--------------------------------------- X4

e------------------
B------------------
G-5--5--7--7-7-7-7-
D-5--5--7--7-7-7-7-
A-3--3--5--5-5-5-5-
D------------------
 
[ Tab from: http://www.guitartabs.cc/tabs/d/default/deny_tab_ver_7.html ]
e------------------
B------------------
G------------------
D-5----------------
A-5----------------
D-5----------------


e------------------------------------
B------------------------------------
G--------5---------------------------
D-5-3-0--5-3-0------5-3-0----------0-
A-5-3-0--3-3-0------5-3-0--5p3p0---0-
D-5-3-0----3-0------5-3-0--------3-0-

e------------------------------------
B------------------------------------
G-------------------12---10----------
D-0-0----0-0--------12---10---10-----
A-0-0----0-0--------10---8----10-----
D-0-0----0-0------------------10----- X4
    

e---------------------------------
B---------------------------------
G--------5-----------------5------
D-5-3-0--5-3-0------5-3-0--5-3-0--
A-5-3-0--3-3-0------5-3-0--3-3-0--
D-5-3-0----3-0------5-3-0----3-0--


This only about half way through....
I updated a previous submission



Comments