Default - Deny Chords & Tabs

 

Deny Chords & Tabs

Default Chords & Tabs

Version: 6 Type: Tab 0 ratings
1 star 2 stars 3 stars 4 stars 5 stars
comments

Deny Tab

   
Song: DENY
Artist: Default
Album: The Fallout(i think that's the title)
Tabbed by: Lew Aaron Manalang
email: freakazoid_trex@hotmail.com

TUNING:
D-A-D-G-B-E

INTRO
||---------------------------------------------------------||
||---8---6-------------------------------------------------||
||---------------9-----10-9--------------------------------||
||-0---0------------------------7------------9----10-9-----|| (2X)
||----------------------------8---8--10---10---10-------10-||
||-----------10-----10-------------------------------------||


When vocals come in
||---------------------------------------------------------||
||---8---6-------------------------------------------------||
||----------------------------9-----10-9--------9-----10-9-||
||-0---0-------7-------------------------------------------|| 
||-----------8---8--10-------------------------------------||
||------------------------10-----10---------10-------------||
[ Tab from: http://www.guitartabs.cc/tabs/d/default/deny_tab_ver_6.html ]
then
  C      Dsus2    
||-0-|| ||-0-||
||-1-|| ||-3-||
||-0-|| ||-2-|| listen for strumming
||-2-|| ||-0-||
||-3-|| ||---||
||---|| ||---||

Chorus
||-------------------------------------||
||-------------------------------------||
||-12-10-7-7-7-7-7-----12-10-7-7-7-7-7-||
||-12-10-7-7-7-7-7-----12-10-7-7-7-7-7-||
||-10-8--5-5-5-5-5-----10-8--5-5-5-5-5-||
||-------------------------------------||

Verses
||--------------------------------------------||
||--------------------------------------------||
||--------------------------------------------||
||-0-0--0-0--5-3-0-0-0-0---0-0--0-0--5-3-0----||
||-0-0--0-0--5-3-0-0-0-0---0-0--0-0--5-3-0----||
||-0-0--0-0--5-3-0-0-0-0---0-0--0-0--5-3-0----||

Outro
||---------------------------------------------------------||
||---8---6-------------------------------------------------||
||---------------9-----10-9--------------------------------||
||-0---0------------------------7------------9----10-9-----|| (2X)
||----------------------------8---8--10---10---10-------10-||
||-----------10-----10-------------------------------------||

This is a cool ass song man... 

Comments