Default - Deny Chords & Tabs

 

Deny Chords & Tabs

Default Chords & Tabs

Version: 5 Type: Tab 0 ratings
1 star 2 stars 3 stars 4 stars 5 stars
comments

Deny Tab

Song: Deny
Artist: Default
Tabbed By: Chris Bromley

This is a really cool song and someone requested this be done so I said
"sure, why not" so hopefully you like this tab.

Drop D Tuning (low to high: DADGBe)

Intro (Fig. 1)x2

e--------------------------------------------
B--------------------------------------------
G---12---10-----9---10-9-----2---0-----4--5-4
D-0----0------0---0--------0---0-----0---0---
A-0----0------0---0--------0---0-----0---0---
D--------------------------------------------


Then the singing part:
[ Tab from: http://www.guitartabs.cc/tabs/d/default/deny_tab_ver_5.html ]
e--------------------------------------------
B--------------------------------------------
G---12---10-----2---0-----9---10-9---9---10-9
D-0----0------0---0-----0---0------0---0-----
A-0----0------0---0-----0---0------0---0-----
D--------------------------------------------

"Can you see this..." (strum chords)

e-------
B-------
G-5-7--5
D-5-7--5 (end on this note with distortion)
A-3-5--3
D-------

verses: (repeat as many times as necessary)

e----------------
B----------------
G----------10-9-5
D-0-0--0-0-10-9-5
A-0-0--0-0-8--7-3
D-0-0--0-0-------

chorus:

e-------------             --------
B-------------             --------
G-7-5-2--5-5-2             --------
D-5-3-0--5-3-0 then end on -3-0-0-3
A-5-3-0--3-3-0             -3-0-0-3
D-5-3-0----3-0             -3-0-0-3
                                ^ 
                                PM

the part where hes singing "There she goes, I"m on the ground", is
just figure 1. hope u enjoy this. any questions or comments please
send to cosmodiar@hotail.com
Comments