Default - Deny Chords & Tabs

 

Deny Chords & Tabs

Default Chords & Tabs

Version: 13 Type: Tab 0 ratings
1 star 2 stars 3 stars 4 stars 5 stars
comments

Deny Tab

In the Fills there is a pattern that can be played one string
lower, depending on how you wanna use the fretboard, check it
out:

Note:
G-12--10--5                    G-12--10---
D-12--10--5 Can also be played D-12--10--10
A-10---8--3                    A-10---8--10
D----------                    D---------10

Just pick whichever tone you like better.  
Anyhow, on to the music...

Intro
Play this 2 times
E---------------------------------------------------------------
B---------------------------------------------------------------
G---12---10------9----10-9---------2---0-------4----5-4---------
D---------------------------------------------------------------
A---------------------------------------------------------------
D-0----0------10---10------10----3---3------5-----5-----5-------

Play this 4 times
"Today I woke up..."
E---------------------------------------------------------------
B---------------------------------------------------------------
G---12---10------2----0--------9---10-9---------9----10-9-------
D---------------------------------------------------------------
A---------------------------------------------------------------
D-0----0------3----3--------10---10-----10---10---10------10----


"Can you see this hell I'm livin'?..."
[---------X3--------]        (distortion)
E-0-0-0-0/0--0--0-0---------------------------------------------
B-1-1-1-1/3--3--3-3---------------------------------------------
G-0-0-0-0/0--0--0-0----------------5----------------------------
D-2-2-2-2/4--4--4-4----------------5----------------------------
A-3-3-3-3/5--5--5-5----------------3----------------------------
D---------------------------------------------------------------

Fill 1
[First time--------------]   [second time----------------]  
E---------------------------------------------------------------
B---------------------------------------------------------------
G--12--10--7------------------12--10--7-------------------------
D--12--10--7--5--3--0---------12--10--7--5p3-3-3-0-0------------
A--10---8--5--5--3--0---------10---8--5--5p3-3-3-0-0------------
D-------------5--3--0--------------------5p3-3-3-0-0------------


Play this 4 times
      "Will..."   "you..."
E---------------------------------------------------------------
B---------------------------------------------------------------
G--7-7---------7-7--------12--10--5-----------------------------
D--7-7---------7-7--------12--10--5-----------------------------
A--5-5---------5-5--------10---8--3-----------------------------
D---------------------------------------------------------------


Fill 2
[1st, 2nd and 3rd time---]   [4th time----------------]  
E---------------------------------------------------------------
B---------------------------------------------------------------
G--12--10--7------------------12--10--7-------------------------
D--12--10--7--5--3--0---------12--10--7--5p3-3-3-0-0------------
A--10---8--5--5--3--0---------10---8--5--5p3-3-3-0-0------------
D-------------5--3--0--------------------5p3-3-3-0-0------------
[ Tab from: http://www.guitartabs.cc/tabs/d/default/deny_tab_ver_13.html ]
Verse 2
Play this 4 times
     "There..."   "goes a piece of me..."
E---------------------------------------------------------------
B---------------------------------------------------------------
G--7-7---------7-7--------12--10--5-----------------------------
D--7-7---------7-7--------12--10--5-----------------------------
A--5-5---------5-5--------10---8--3-----------------------------
D---------------------------------------------------------------

Fill 3 (Same as Fill2)
[1st, 2nd and 3rd time---]   [4th time----------------]  
E---------------------------------------------------------------
B---------------------------------------------------------------
G--12--10--7------------------12--10--7-------------------------
D--12--10--7--5--3--0---------12--10--7--5p3-3-3-0-0------------
A--10---8--5--5--3--0---------10---8--5--5p3-3-3-0-0------------
D-------------5--3--0--------------------5p3-3-3-0-0------------

Bridge (Same as Intro, but 4 times)

Play this 4 times
E---------------------------------------------------------------
B---------------------------------------------------------------
G---12---10------9----10-9---------2---0-------4----5-4---------
D---------------------------------------------------------------
A---------------------------------------------------------------
D-0----0------10---10------10----3---3------5-----5-----5-------

Fill 4 (Same as Fills 2 and 3)
[1st, 2nd and 3rd time---]   [4th time----------------]  
E---------------------------------------------------------------
B---------------------------------------------------------------
G--12--10--7------------------12--10--7-------------------------
D--12--10--7--5--3--0---------12--10--7--5p3-3-3-0-0------------
A--10---8--5--5--3--0---------10---8--5--5p3-3-3-0-0------------
D-------------5--3--0--------------------5p3-3-3-0-0------------

Ending

Play this 4 times
      "Will..."   "you..."       [hold the C5 on last time]
E---------------------------------------------------------------
B---------------------------------------------------------------
G--7-7---------7-7--------12--10--5-----------------------------
D--7-7---------7-7--------12--10--5-----------------------------
A--5-5---------5-5--------10---8--3-----------------------------
D---------------------------------------------------------------

Lyrics:

Today I woke up and you were gone.
The whole day wonderin' what I did wrong.
It's like I'm falling from a, a mountain top.
My heart keeps poundin' and it won't stop.

Can you see this,
hell I'm livin'?
I'm not givin' up.

Will you crawl to me?
Will you fall with me?
I'll never crawl to you.
I've done it all for you.

No, well don't deny,
The hand that feeds you needs you.
I've gotta' die to try to,
Finally please you.

There goes a piece of me.
Will I cease to be?
I've never lied to you.
Fought, bled and died for you.

No, well don't deny,
The hand that takes you breaks you.
I've gotta' die to try to,
Finally please you.

Will you crawl with me?
Will you fall with me?
I'll never crawl to you.
I've done it all for you.

There she goes and I'm on the ground, 
I'm on the ground, I'm on the...
There she goes and I'm on the ground, 
I'm on the ground, I'm on the...
There she goes and I'm on the ground, 
I'm on the ground, I'm on the...
There she goes and I'm on the ground, 
I'm on the ground, I'm on the...

No, well don't deny,
The hand that feeds you needs you.
I've gotta' die to try to,
Finally please you.

Will you crawl with me?
Will you fall with me?
I'll never crawl to you.
I've done it all for you.
Comments