Default - Deny Chords & Tabs

 

Deny Chords & Tabs

Default Chords & Tabs

Version: 10 Type: Tab 0 ratings
1 star 2 stars 3 stars 4 stars 5 stars
comments

Deny Tab

   
This is my first tab and i was forced to do it on an acoustic, so bare with me.
Default - Deny - intro

E---3---1------0---1---0----------
B---------------------------------
G---------------------------------
D---------------------------------
A-0---0------3---3-------3--------
E---------------------------------

E---------------------------------
B-----------------0---1---0-------
G---2---0-------------------------
D---------------------------------
A-0---0---------2---2-------2-----
E---------------------------------    X2
[ Tab from: http://www.guitartabs.cc/tabs/d/default/deny_tab_ver_10.html ]
When he starts singing:

E---3---1-------------------------
B---------------------------------
G--------------2---0--------------
D---------------------------------
A-0---0------0---0----------------
E

E---0---1---0-----------0---1---0-
B---------------------------------
G---------------------------------
D---------------------------------
A-3---3------3--------3---3------3
E---------------------------------    X4

That's all i know for now(Sorry), if you want you can e-mail me at 
life_is_peach81@hotmail.com    
Enjoy!
Comments