Default - Deny Acoustic Correct Chords & Tabs

 

Deny Acoustic Correct Chords & Tabs

Default Chords & Tabs

Version: 1 Type: Tab 0 ratings
1 star 2 stars 3 stars 4 stars 5 stars
comments

Deny Acoustic Correct Tab

   
Default
"Deny"
Tabbed by Ben Gunning

This is a cool song that is real easy to play.  I tabbed it on an acoustic guitar, but this
would definitely sound great on an electric too.  It's correct, i promise.  I saw them in
a little club and took note of how Jeremy Hora plays it. Anyways, here it is.

p= pull off
^=upstroke
no need to tune down

Intro and RIFF 1 (2x)
   Dm     C             F         G   
E------------------------------------------------------------
B------------------------------------------------------------
G---12---10------9---10-9-----------2---0-------4---5-4------
D------------------------------------------------------------
A------------------------------------------------------------     
D-0---0-------10---10-----10------3---3-------5---5-----5----

lyrics start

RIFF 1b (4x)
E------------------------------------------------------------
B------------------------------------------------------------
G---12---10-----2---0------4---5-4----------4---5-4----------
D------------------------------------------------------------
A------------------------------------------------------------     
D-0---0-------3---3------5---5-----5------5---5-----5--------

[ Tab from: http://www.guitartabs.cc/tabs/d/default/deny_acoustic_correct_tab.html ]
RIFF 2                                              let ring
E--0-0---0-0-0------0-0---0-0-0------0-0---0-0-0---0----
B--1-1---3-3-3------1-1---3-3-3------1-1---3-3-3---3----
G--0-0---0-0-0------0-0---0-0-0------0-0---0-0-0---0----
D--2-2---4-4-4------2-2---4-4-4------2-2---4-4-4---4----
A--3-3---5-5-5------3-3---5-5-5------3-3---5-5-5---5----
E--0-0---0-0-0------0-0---0-0-0------0-0---0-0-0---0----   



RIFF 3 (1x)
E--0---0---0-0-0---0--0--0-0-0--------
B--8---6---3-3-3---1--3--3-3-3--------
G--0---0---0-0-0---0--0--2-2-2--------
D--9---7---4-4-4---2--0--0-0-0--------
A--10--8---5-5-5---3------------------
E--0---0---0-0-0---0------------------

RIFF 3b (1x)

E--0---0---0-0-0-------------0-----
B--8---6---3-3-3-------------3-----
G--0---0---0-0-0-------------2-----
D--9---7---4-4-4-------------0-----
A--10--8---5-5-5---3p0---0---------
E--0---0---0-0-0-------3---3-------
   

RIFF 4 (4x)                 ^ 
E--0-0----0-0-------------0-0-0-------
B--3-3----3-3-------------0-0-0-------
G--2-2----2-2-------------0-0-0-------
D--0-0----0-0----5-3------0-0-0-------
A--------------------3----------------
E-------------------------------------


The rest of the song goes as follows:
RIFF 3  (3x)
RIFF 3b (1x)
RIFF 4  (3x)
RIFF 3  (3x)
RIFF 3b (1x)
RIFF 1  (3x)

RIFF 5
E--00000000-00000000---------------------
B--11111111-33333333---------------------
G--00000000-00000000---------------------
D--22222222-44444444---------------------
A--33333333-55555555---------------------
E--00000000-00000000---------------------

RIFF 3  (3x)
RIFF 3b (1x)
RIFF 4  (3x)

RIFF 4b (1x) Outtro
E--0-0----0-0--------------------
B--3-3----3-3--------------------
G--2-2----2-2--------------------
D--0-0----0-0----5-7-------------
A--------------------5-----------
E--------------------------------


Well thats it.  Definitely one of my favorites.



Comments