Default - Cruel Chords & Tabs

 

Cruel Chords & Tabs

Default Chords & Tabs

Version: 1 Type: Tab 0 ratings
1 star 2 stars 3 stars 4 stars 5 stars
comments

Cruel Tab

   
----------------------------------------------------------------------------
			     CRUEL- Default
----------------------------------------------------------------------------
Tabbed by: Tyler Greig (dbzrage3k)
Email: gtheleadguitarist@hotmail.com

Tuning: Drop D



INTRO
e|----------------------------------------------------------------------|
B|----------------------------------------------------------------------|
G|---11------11------11------11------11------11------11------11---------|
D|-0---10v-9---10v-9---10v-9---10v-9---10v-9---10v-9---10v-9---10v-9----|
A|-0--------------------------------------------------------------------|  
D|-0--------------------------------------------------------------------|  x2

Intro 2
e|-----------------------------|    |--------------------|
B|-----------------------------|    |--------------------|
G|--------5--7------7----7-----|    |----5--5/7----------|
D|-0-0-0--5--7----7----7----7--|    |-0--5--5/7-6-5-3-0--|
A|-0-0-0--3--5--5----5----5----|    |-0--3--3/5-6-5-3-0--|
D|-0-0-0-----------------------| x3 |-0---------6-5-3-0--|

Verse
e|-----------------------------|    |--------------------|
B|-----------------------------|    |--------------------|
G|--------5--7------7----7-----|    |----5--5/7----------|
D|-0-0-0--5--7----7----7----7--|    |-0--5--5/7-6-5-3-0--|
A|-0-0-0--3--5--5----5----5----|    |-0--3--3/5-6-5-3-0--|
D|-0-0-0-----------------------| x3 |-0---------6-5-3-0--| 

e|-----------------------------|    |--------------------|
B|-----------------------------|    |--------------------|
G|--------5--7------7----7-----|    |----5--5/7----------|
D|-0-0-0--5--7----7----7----7--|    |-0--5--5/7-6-5-3-0--|
A|-0-0-0--3--5--5----5----5----|    |-0--3--3/5-6-5-3-0--|
D|-0-0-0-----------------------| x3 |-0---------6-5-3-0--| 

Pre-Chorus (I'm moving, moving on again)
e|-----------------------------------|
B|-----------------------------------|
G|---5-5/7-------------5-5/7---------|
D|-0-5-5/7-3-xx-5---0--5-5/7-6-5-3-0-|
A|-0-3-3/5-3-xx-5---0--3-3/5-6-5-3-0-|
D|-0-------3-xx-5---0--------6-5-3-0-|  x2

Chorus (Ba  -  by   you're   so    cruel
e|----------------------------------------|
B|----------------------------------------|
G|-------7-----9------5-------2-----------|
D|-------7-----9------5-------2------0----|
A|-------5-----7------3-------0------0----|
D|-----------------------------------0----|  x1

Verse 2
e|-----------------------------------------------------|
B|-----------------------------------------------------|
G|--11------11------11------11------11------11---------|
D|----10v-9---10v-9---10v-9---10v-9---10v-9----3-x-5---|
A|---------------------------------------------3-x-5---|  
D|---------------------------------------------3-x-5---| x1

e|-----------------------------|    |--------------------|
B|-----------------------------|    |--------------------|
G|--------5--7------7----7-----|    |----5--5/7----------|
D|-0-0-0--5--7----7----7----7--|    |-0--5--5/7-6-5-3-0--|
A|-0-0-0--3--5--5----5----5----|    |-0--3--3/5-6-5-3-0--|
D|-0-0-0-----------------------| x3 |-0---------6-5-3-0--|

There is also this in line with that 000:
e|-----|
B|-----|
G|-----|
D|-----|
A|-5v~-|
D|-----|

e|-----------------------------|    |--------------------|
B|-----------------------------|    |--------------------|
G|--------5--7------7----7-----|    |----5--5/7----------|
D|-0-0-0--5--7----7----7----7--|    |-0--5--5/7-6-5-3-0--|
A|-0-0-0--3--5--5----5----5----|    |-0--3--3/5-6-5-3-0--|
D|-0-0-0-----------------------| x3 |-0---------6-5-3-0--| 

Pre-Chorus (moving on again)
e|-----------------------------------|
B|-----------------------------------|
G|---5-5/7-------------5-5/7---------|
D|-0-5-5/7-3-xx-5---0--5-5/7-6-5-3-0-|
A|-0-3-3/5-3-xx-5---0--3-3/5-6-5-3-0-|
D|-0-------3-xx-5---0--------6-5-3-0-|  x2

Chorus (Ba  -  by   you're   so    cruel
e|----------------------------------------|
B|----------------------------------------|
G|-------7-----9------5-------2-----------|
D|-------7-----9------5-------2------0----|
A|-------5-----7------3-------0------0----|
D|-----------------------------------0----|  x1

Bridge
e|------------------------------------------------------|
B|------------------------------------------------------|
G|--11------11------11------11------11------11----------|
D|----10v-9---10v-9---10v-9---10v-9---10v-9----3-x--5---|
A|---------------------------------------------3-x--5---|  
D|---------------------------------------------3-x--5---| x1
[ Tab from: http://www.guitartabs.cc/tabs/d/default/cruel_tab.html ]
e|-------17--------17-------17-------17-------17-------17--------|
B|---------16v-15----16v-15---16v-15---16v-15---16v-15-----------|
G|---------------------------------------------------------------|
D|-x-0----------------------------------------------------3-x--5-|
A|-x-0----------------------------------------------------3-x--5-|
D|-x-0----------------------------------------------------3-x--5-|

 "thought" "now"   "these"  "aimless"
e|--------------------------------------------------------------------------------|
B|--3-----------------3-----------------------------------------------------------|
G|--2-----------------2-----------------------------------------------------------|
D|--0--------0--------0--------4-4-4-4-4-4-4-0--4-4-4-4-4-4-4-0--4-4-4-4-4-4-4-0--|
A|--0--------0--------0--------4-4-4-4-4-4-4-0--4-4-4-4-4-4-4-0--4-4-4-4-4-4-4-0--|
D|--0--------0--------0--------4-4-4-4-4-4-4-0--4-4-4-4-4-4-4-0--4-4-4-4-4-4-4-0--|

 "cruel"
e|----------------------------------------------------------------|
B|----------------------------------------------------------------|
G|----11------11------11------11------11------11------11------11--|
D|--0---10v-9---10v-9---10v-9---10v-9---10v-9---10v-9---10v-9-----|
A|--0-------------------------------------------------------------|
D|--0-------------------------------------------------------------|

Verse
e|-----------------------------|    |--------------------|
B|-----------------------------|    |--------------------|
G|--------5--7------7----7-----|    |----5--5/7----------|
D|-0-0-0--5--7----7----7----7--|    |-0--5--5/7-6-5-3-0--|
A|-0-0-0--3--5--5----5----5----|    |-0--3--3/5-6-5-3-0--|
D|-0-0-0-----------------------| x3 |-0---------6-5-3-0--|

"Fade away"
This is probably off, but it works for me
e|------------------------|
B|------------------------|
G|------------------------|
D|--5^-5h4--7-------------|
A|-------------7--3p2/5v~-|
D|------------------------|

e|-----------------------------|    |--------------------|
B|-----------------------------|    |--------------------|
G|--------5--7------7----7-----|    |----5--5/7----------|
D|-0-0-0--5--7----7----7----7--|    |-0--5--5/7-6-5-3-0--|
A|-0-0-0--3--5--5----5----5----|    |-0--3--3/5-6-5-3-0--|
D|-0-0-0-----------------------| x3 |-0---------6-5-3-0--|

"Surround you"     "found you"
e|-------|         |---------|
B|-------|         |---------|
G|-------|         |---------|
D|-------|         |-6-5-3-0-|
A|--/7v~-|         |---------|
D|-------|         |---------|


Pre-Chorus (I'm moving, moving on again)
e|-----------------------------------|
B|-----------------------------------|
G|---5-5/7-------------5-5/7---------|
D|-0-5-5/7-3-xx-5---0--5-5/7-6-5-3-0-|
A|-0-3-3/5-3-xx-5---0--3-3/5-6-5-3-0-|
D|-0-------3-xx-5---0--------6-5-3-0-|  x7 (play through solo)

3rd time you play pre-chorus:           4th time:
e|-----------------------|
B|-----------------------|
G|-----------------------|
D|--7v~----7h9v----------|
A|--------------7p6/5v~--|
D|-----------------------|

SOLO
Sounds like a tremolo pedal in parts of this. I find you can get a close-to-tremolo
sound if you use 2 fingers to continuously hammer-on the fret, switching fingers back and forth.
I'll use hammer-on symbols for when he's using the fast tremolo.
e|---------------------------------------------------------------------------------|
B|---------------------------------------------------------------------------------|
G|---------------------------------------------------------------------------------|
D|---------------------------------------------------------------------------------|
A|-5v~----9^--12^r-8v-5v--3--5h6^p5v--8h8h8h8h8h8h8h8-6^-7^p5-8h8h8h8h8h8h8h8h8h8--|
D|---------------------------------------------------------------------------------|

e|----------------------------------------------------------------------------------|
B|----------------------------------------------------------------------------------|
G|----------------------14^--------------------------------------13-12-10-7---11^r12^-r|
D|-------------------12-------------------------------------------------------------|
A|-9h9h9h9h9h9h9h9h9--------10h10h10h10h10h10h10h10h10h10h10------------------------|
D|----------------------------------------------------------------------------------|

e|------------------------------------------------------------------19^-|
B|-------------------------------13v~-----------------------------------|
G|-12^/11-7v/12\7--9\7--14-13-12-------12^-12^-12^-12^-12^-12^-12^------|
D|----------------------------------------------------------------------|
A|----------------------------------------------------------------------|
D|----------------------------------------------------------------------|

End with
e|------|
B|------|
G|-14^~-|
D|------|
A|------|
D|------|
Bend and vibrato and such, and let it ring to finish the song.


| /  slide up
| \  slide down
| h  hammer-on
| p  pull-off
| ~  vibrato
| +  harmonic
| x  Mute note
===========================================================================
Comments