Default - Count On Me Chords & Tabs

 

Count On Me Chords & Tabs

Default Chords & Tabs

Version: 2 Type: Tab 0 ratings
1 star 2 stars 3 stars 4 stars 5 stars
comments

Count On Me Tab

   
-------------------------------------------------------------------------------
			     Count on me - Default
-------------------------------------------------------------------------------
Tabbed by:Firewerks
Email: Core@shaw.ca	

Tuning: Db Ab Db Gb Bb Eb

(im not sure how they tune, but this sounds good to me)

Notes:

This is my redition of a cool song, im not sure how default usually tunes but 
with the open D, it seems to work! again, all the timing isnt on. this is mostly just
to show the chords and use your ears to play along! I hope you enjoy it! I have most of
the song layed out, but all parts of the song are for sure here! i may have missed a few notes
in the solo, but it still sounds great.




Intro
	     PM-----|	 ~~~~	  Last part of intro (listen for timing)
e|-------------------------------|-------------------------------------------|
B|-------------------------------|-------------------------------------------|
G|--9---9-9-----------/9---------|--9--9-9-9---7--7--7-----------------------|
D|--9---9-9---6-7-6-------7------|--7--7-7-7---5--5--7---(7)-----------------|
A|--7---7-7---7-7-7--------------|--7--7-7-7---5--5--5---(7)-----------------|
D|-------------------------------|--7--7-7-7---5--5------(7)-----------------|

Pre-Chorus

e|---------------------------------------------------------------------------|
B|---------------------------------------------------------------------------|
G|-6-6-6-6-6---4-4-4-4-4-4--2-2-2-2-2-2--------------------------------------|
D|-6-6-6-6-6---4-4-4-4-4-4--2-2-2-2-2-2--------------------------------------|
A|-4-4-4-4-4---2-2-2-2-2-2--0-0-0-0-0-0--------------------------------------|
D|---------------------------------------------------------------------------|
   "Because you know lifes aint over yet..."

Chours

e|---------------------------------------------------------------------------|
B|---------------------------------------------------------------------------|
G|--9--9--9------------------------------------------------------------------|
D|--9--9--9--9-9-9-9--0-0-0-0--9-9-9-9---------------------------------------|
A|--7--7--7--9-9-9-9--0-0-0-0--7-7-7-7---------------------------------------|
D|-----------9-9-9-9--0-0-0-0--7-7-7-7---------------------------------------|
  "anytime you need someone..."


	     PM-----|	 ~~~~	  Last part of intro (listen for timing)
e|-------------------------------|-------------------------------------------|
B|-------------------------------|-------------------------------------------|
G|--9---9-9-----------/9---------|--9--9-9-9---7--7--7-----------------------|
D|--9---9-9---6-7-6-------7------|--7--7-7-7---5--5--7---(7)-----------------|
A|--7---7-7---7-7-7--------------|--7--7-7-7---5--5--5---(7)-----------------|
D|-------------------------------|--7--7-7-7---5--5------(7)-----------------|



e|---------------------------------------------------------------------------|
B|---------------------------------------------------------------------------|
G|-6-6-6-6-6---4-4-4-4-4-4--2-2-2-2-2-2--------------------------------------|
D|-6-6-6-6-6---4-4-4-4-4-4--2-2-2-2-2-2--------------------------------------|
A|-4-4-4-4-4---2-2-2-2-2-2--0-0-0-0-0-0--------------------------------------|
D|---------------------------------------------------------------------------|


[ Tab from: http://www.guitartabs.cc/tabs/d/default/count_on_me_tab_ver_2.html ]
e|---------------------------------------------------------------------------|
B|---------------------------------------------------------------------------|
G|--9--9--9------------------------------------------------------------------|
D|--9--9--9--9-9-9-9--0-0-0-0--9-9-9-9---------------------------------------|
A|--7--7--7--9-9-9-9--0-0-0-0--7-7-7-7---------------------------------------|
D|-----------9-9-9-9--0-0-0-0--7-7-7-7---------------------------------------|



e|---------------------------------------------------------------------------|
B|---------------------------------------------------------------------------|
G|-6-6-6-6-6---4-4-4-4-4-4--2-2-2-2-2-2--------------------------------------|
D|-6-6-6-6-6---4-4-4-4-4-4--2-2-2-2-2-2--------------------------------------|
A|-4-4-4-4-4---2-2-2-2-2-2--0-0-0-0-0-0--------------------------------------|
D|---------------------------------------------------------------------------|



Solo (played over chorus guitar)


	     P   ~~~   H    		P	  H	 (Bend full up then down)
e|---------------------------------------------------------------------|
B|-------------------------------------------------------------^-------|
G|--13-13--11-9--11--------9--/13-13--11--9--11--------9--11--(11)--9--|
D|-------------------9--11-----------------------9--11-----------------|
A|---------------------------------------------------------------------|
D|---------------------------------------------------------------------|
   
      H				      H	                B P
e|---------------------------------------------------------------------|
B|----------------------------------------------12-12--^---------------|
G|--------9---/14-14-13-13-11-11--9--------9-----------11--9--11-------|
D|--9--11----------------------------9--11---11------------------------|
A|---------------------------------------------------------------------|
D|---------------------------------------------------------------------|


     H	               B P        H		(Bend full up then down)           ^ (hold bend)
e|----------------------------------------------------------------------12----12--15--|
B|-------------12-12--^-------------------------^--------------12-12-------12---------|
G|--------9-----------11--9--11---------9--11--(11)--9---14-14------------------------|
D|--9--11---11-------------------9--11------------------------------------------------|
A|------------------------------------------------------------------------------------|
D|------------------------------------------------------------------------------------|


   ^    ^       P         ^       P  (hold note)
e|-15---15--(15)--12--14--14--(14)-12---------------|
B|--------------------------------------------------|
G|--------------------------------------------------|
D|--------------------------------------------------|
A|--------------------------------------------------|
D|--------------------------------------------------|


e|---------------------------------------------------------------------------|
B|---------------------------------------------------------------------------|
G|-6-6-6-6-6---4-4-4-4-4-4--2-2-2-2-2-2--------------------------------------|
D|-6-6-6-6-6---4-4-4-4-4-4--2-2-2-2-2-2--------------------------------------|
A|-4-4-4-4-4---2-2-2-2-2-2--0-0-0-0-0-0--------------------------------------|
D|---------------------------------------------------------------------------|


e|---------------------------------------------------------------------------|
B|--------------------2-2-2-2------------------------------------------------| (repeat till end)
G|--9--9--9-----------3-3-3-3------------------------------------------------|
D|--9--9--9--9-9-9-9--0-0-0-0--9-9-9-9---------------------------------------|
A|--7--7--7--9-9-9-9--0-0-0-0--7-7-7-7---------------------------------------|
D|-----------9-9-9-9--0-0-0-0--7-7-7-7---------------------------------------|


| ^  Bend
| /  slide up
| \  slide down
| H  hammer-on
| p  pull-off
| ~  vibrato
| +  harmonic
| x  Mute note
===============================================================================
Comments