Default - Blind Chords & Tabs

 

Blind Chords & Tabs

Default Chords & Tabs

Version: 2 Type: Tab 0 ratings
1 star 2 stars 3 stars 4 stars 5 stars
comments

Blind Tab

   
Band: Default
Song: Blind
Album: OST Spiderman
Tunning: E (EADGBe)
Author: NezZ (nezz@internezz.com) 
Web: http://www.internezz.com


Riff Intro
E------------------|------------------|
A-------2---0------|------0--------2--|
D---0-----------2--|--0-------2-------| X2
G------------------|------------------|
B------------------|------------------|
e------------------|------------------|


Verse
        B                   A                 E                  D
E------------------|--5-5-5-5-5-------|------------------|------------------|
A--2-2-2-2-2-------|--7-7-7-7-7-------|---7-7-7-7--------|------0--------2--|
D--4-4-4-4-4-------|--7-7-7-7-7-------|---9-9-9-9--------|--0-------2-------| X2
G--4-4-4-4-4-------|------------------|---9-9-9-9--------|------------------|
B------------------|------------------|------------------|------------------|
e------------------|------------------|------------------|------------------|


Chorus
[ Tab from: http://www.guitartabs.cc/tabs/d/default/blind_tab_ver_2.html ]
         D                 E                  G                    A
E------------------|------------------|---3--3-----------|---5-5-5-5--------|
A--5-5-------------|---7--7--7--7-----|---5--5-----------|---7-7-7-7--------|
D--7-7-------------|---9--9--9--9-----|---5--5-----------|---7-7-7-7--------| X3
G--7-7-------------|---9--9--9--9-----|------------------|------------------|
B------------------|------------------|------------------|------------------|
e------------------|------------------|------------------|------------------|

         D                 E                  G    
E------------------|------------------|------------------|
A--5-5-------------|---7--7--7--7-----|------0--------2--|
D--7-7-------------|---9--9--9--9-----|--0-------2-------|
G--7-7-------------|---9--9--9--9-----|------------------|
B------------------|------------------|------------------|
e------------------|------------------|------------------|


Sugestions & corections:
NezZ
nezz@internezz.com
http://www.internezz.com
Comments