Default - Blind Chords & Tabs

 

Blind Chords & Tabs

Default Chords & Tabs

Version: 1 Type: Tab 0 ratings
1 star 2 stars 3 stars 4 stars 5 stars
comments

Blind Tab

   
band: default
song: blind
album: spider-man soundtrack

standard tuning (EADGBe)
corrected by erika (sweetbluestar@telus.net)

listen to the song for correct rhythm patterns as i didn't go over that to make sure it's right...
guitar solo not included.
(font should be geneva size 10 to look right)

intro

e------------------|------------------|
B------------------|------------------|
G------------------|------------------|
D---0-----------2--|--0-------2-------| X2
A-------2---0------|------0--------2--|
E------------------|------------------|


verse

        B                                           A                                         E                                          D
e------------------|------------------|------------------|------------------|
B------------------|------------------|------------------|------------------|
G--4-4-4-4-4-------|------------------|------------------|------------------|
D--4-4-4-4-4-------|--7-7-7-7-7-------|---2-2-2-2--------|--0-------2-------| X2
A--2-2-2-2-2-------|--7-7-7-7-7-------|---2-2-2-2--------|------0--------2--|
E------------------|--5-5-5-5-5-------|---0-0-0-0--------|------------------|


chorus

         D                                         E                                          G                                            A
e------------------|------------------|------------------|------------------|
B------------------|------------------|------------------|------------------|
G--7-7-------------|------------------|------------------|------------------|
D--7-7-------------|---2--2--2--2-----|---5--5-----------|---7-7-7-7--------| X3
A--5-5-------------|---2--2--2--2-----|---5--5-----------|---7-7-7-7--------|
E------------------|------------------|---3--3-----------|---5-5-5-5--------|

         D                                      E                                                              
e------------------|------------------|------------------|
B------------------|------------------|------------------|
G--7-7-------------|------------------|------------------|
D--7-7-------------|---2--2--2--2-----|--0-------2-------|
A--5-5-------------|---2--2--2--2-----|------0--------2--|
E------------------|------------------|------------------|


funky bridge w/o guitar
then guitar bridge w/ solo
(same pattern as verse except the end)
[ Tab from: http://www.guitartabs.cc/tabs/d/default/blind_tab.html ]
        B                                           A                                         E  
e------------------|------------------|------------------|------------------|
B------------------|------------------|------------------|------------------|
G--4-4-4-4-4-------|------------------|------------------|------------------|
D--4-4-4-4-4-------|--7-7-7-7-7-------|---2-2-2-2--------|--0-------2-------| 
A--2-2-2-2-2-------|--7-7-7-7-7-------|---2-2-2-2--------|------0--------2--|
E------------------|--5-5-5-5-5-------|---0-0-0-0--------|------------------|

        B                                           A                                         E  
e------------------|------------------|------------------|------------------|
B------------------|------------------|------------------|------------------|
G--4-4-4-4-4-------|------------------|------------------|------------------|
D--4-4-4-4-4-------|--7-7-7-7-7-------|---2-2-2-2--------|--0-------2-------| 
A--2-2-2-2-2-------|--7-7-7-7-7-------|---2-2-2-2--------|------0--------2--|
E------------------|--5-5-5-5-5-------|---0-0-0-0--------|------------------|

e------------------|
B------------------|
G------------------|
D--0-------2-------| 
A------0--------2--|
E------------------|


chorus

        D                                           E                                            G                                        A
e------------------|------------------|------------------|------------------|
B------------------|------------------|------------------|------------------|
G--7-7-------------|------------------|------------------|------------------|
D--7-7-------------|---2--2--2--2-----|---5--5-----------|---7-7-7-7--------| X3
A--5-5-------------|---2--2--2--2-----|---5--5-----------|---7-7-7-7--------|
E------------------|---0--0--0--0-----|---3--3-----------|---5-5-5-5--------|

        D                                           E
e------------------|------------------|
B------------------|------------------|
G--7-7-------------|------------------|
D--7-7-------------|---2--2--2--2-----|
A--5-5-------------|---2--2--2--2-----|
E------------------|---0--0--0--0-----|

e------------------|------------------|
B------------------|------------------|
G------------------|------------------| X2
D---0-----------2--|--0-------2-------|
A-------2---0------|------0--------2--|
E------------------|------------------|
Comments