Default - All She Wrote Chords & Tabs

 

All She Wrote Chords & Tabs

Default Chords & Tabs

Version: 1 Type: Tab 0 ratings
1 star 2 stars 3 stars 4 stars 5 stars
comments

All She Wrote Tab

   
Artist: Default
Title: All She Wrote
Album: Elocation

standard tuning


verse 1

     C   Em    F    F      
e----0----0----1----1--- 
b----1----0----1----1--- 
g----0----0----2----2--- 
d----2----2----3----3--- 
a----3----2----3----3--- 
e---------0----1----1--- 

     C   Em  Am    F    
e----0----0----0----1---
b----1----0----1----1---
g----0----0----2----2---
d----2----2----2----3---
a----3----2----0----3---
e---------0---------1---


pre-chorus

    Am    G   Am    G    F
e----0----3----0----3----1----
b----1----3----1----3----1----
g----2----0----2----0----2----
d----2----0----2----0----3----
a----0----2----0----2----3----
e---------3---------3----1----


chorus 1

     C   C/B   F   Fm      
e----0----0----1----1--- 
b----1----1----1----1--- 
g----0----0----2----1--- 
d----2----2----3----3--- 
a----3----2----3----3--- 
e--------------1----1--- 


verse 2

same as verse 1 but a second guitar adds a few notes over the top of 
the second half of the verse and the prechorus, its a bit hard to pick 
them out but this sounds pretty close
[ Tab from: http://www.guitartabs.cc/tabs/d/default/all_she_wrote_tab.html ]
      C      Em      Am     F
e--------------------------------- 
b-----1-------1---------1-----1---
g---0---0-------0-----------0-----
d-----------2---------2-----------
a-------------------0-------------
e---------------------------------


pre-chorus


heavy chorus - you can play it the same but i think it sounds best to put 
up the distortion and play barre chords:

     C   C/B   F   Fm      
e--------------1----1--- 
b--------------1----1--- 
g----9----9----2----1--- 
d----10---10---3----3--- 
a----10---10---3----3--- 
e----8----7----1----1--- 


bridge

e--------3---------------
b--------3---------------
g----7---0---7---2---4---
d----7---0---7---3---5---
a----5---x---5---3---5---
e--------3-------1---3---

solo

gtr 1

e------------------------------------------------------------------------
b--8--6--4-3--6--------666/888---333--55b6r5--3--1/8--6--4-3/11---8/13---
g------------------------------------------------------------------------


gtr 2

e------------------------------------------------------------------------
b------------------------------------------------------------------------
g--5----------7----------9-------------------------5---------7-----------
d--6----------8----------10------------------------6---------8-----------
a--6----------8----------10------------------------6---------8-----------
e--4----------6----------8-------------------------4---------6-----------


heavy chorus

end verse



tabbed by matt rosengarten

Comments