Default - All Is Forgiven Chords & Tabs

 

All Is Forgiven Chords & Tabs

Default Chords & Tabs

Version: 1 Type: Tab

All Is Forgiven Tab

			     Default - All is Forgiven
Tabbed by: Chris Van Ekelenburg
Email:hola_paco69@hotmail.com


Tuning:Drop C (eBFCAC)
Strumming isn't that hard to figure out...

  play this clean         |    harmonics to guitar
e|------------------------|------8~------------------------|
B|-9----------------------|--10~----10-9~--10~ 13-10-9~----|
F|-9----------------------|--------------------------------|
C|-7-x8--9-----7-----6----|--------------------------------|
A|-7-----9-x8--7-x8--6-x8-|--------------------------------|
C|-------7-----5-----4----|--------------------------------|
[ Tab from: http://www.guitartabs.cc/tabs/d/default/all_is_forgiven_tab.html ]
   same as above just with heavy distortion in the verse
e|-----------------------------------------------|
B|-9---------------------------------------------|
F|-9----9----7-----6-----------------------------|
C|-7-x8-9-x8-7-x8--6-x8--------------------------|
A|-7----7----5-----4-----------------------------|
C|-----------------------------------------------|

   Lead-up to Chorus
 PM_________________
e|---------------------------------------------------------------|
B|---------------------------------------------------------------|
F|---------------------------------------------------------------|
C|-4-4-4-4-4-4-4-4-4---------------------------------------------|
A|-4-4-4-4-4-4-4-4-4---------------------------------------------|
C|-2-2-2-2-2-2-2-2-2---------------------------------------------|

Chorus is the same as intro (play it clean) exept for the last chorus, just play that 
with distortion.
Sorry, no solo. :(

Intro-clean
Verse-Heavy Distortion
Chorus-clean, dist.

Thanks for viewing, email with any questions.