Def Leppard - Women Chords & Tabs

 

Women Chords & Tabs

Def Leppard Chords & Tabs

Version: 1 Type: Bass Tab 0 ratings
1 star 2 stars 3 stars 4 stars 5 stars
comments

Women Bass Tab

Artist: DEF LEPPARD
Song Title: Women
Instrument: BASS
I'm not a hundred percent sure about this one, but I think it's pretty much
right.
Tabbed By: Def_Leppard_80s_Rock@hotmail.com, COPYRIGHT TO DEF LEPPARD:AND
SHANNON HUARD
Play it like your playing the blues, and give it some time, its not easy to play this one!

Intro: Play like your fingers are slashing the bass. Or just use a pick.
------------------------------------------------------|
------------------------------------------------------|
------------------------------------------------------|
---0-0-------0----------------------------------------|


------------------------------------------------------|
------------------------------------------------------|
------------------------------------------------------|
-0-0-0-0-0-0-0-0--7-7-7-7--9-9-9-9--------------------|


------------------------------------------------------|
------------------------------------------------------|
------------------------------------------------------|
-0-0-0-0-0-0-0-0--5-5-5-5--7-7-7-7--------------------|

------------------------------------------------------|
------------------------------------------------------|
------------------------------------------------------|
-0-0-0-0-0-0-0-0--7-7-7-7--9-9-9-9--------------------|

---------------7-5------------------------------------|
-------------------7-5--------------------------------|
------------------------7-5---------------------------|
---0-0--7---------------------7-5---------------------|

---------------7-5------------------------------------|
-------------------7-5--------------------------------|
------------------------7-5---------------------------|
---0-0--7---------------------7-5---------------------|

Verse:Play this 17 Times, then run into the Pre Chorus.
---------------7-5------------------------------------|
-------------------7-5--------------------------------|
------------------------7-5---------------------------|
---0-0--7---------------------7-5---------------------|

Pre Chorus:
------------------------------------------------------|
------------------------------------------------------|
------------------------------------------------------|
-0-0-0-0-0-0-0-0--2-2-2-2-2-2-2-4-4-4-4-4-4-4-6-6-6-6-|

Chorus:Let the last note ring....
------------------------------------------------------|
---------------------------------5--------------------|
----5---3--5---3---------7-5--7-5---------------------|
-----------------3------------------------------------|

------------------------------------------------------|
---------------------------------5--5-5-5-------------|
----5---3--5---3---------7-5--7-5---------------------|
-----------------3------------------------------------|

After Chorus:
-0-0-0-0-0-0-0-0--7-7-7-7--9-9-9-9--------------------|
------------------------------------------------------|
------------------------------------------------------|
------------------------------------------------------|


-0-0-0-0-0-0-0-0--5-5-5-5--7-7-7-7--------------------|
------------------------------------------------------|
------------------------------------------------------|
------------------------------------------------------|
Verse:Play this 17 Times, then run into the Pre Chorus.
---------------7-5------------------------------------|
-------------------7-5--------------------------------|
------------------------7-5---------------------------|
---0-0--7---------------------7-5---------------------|
Pre Chorus:
------------------------------------------------------|
------------------------------------------------------|
------------------------------------------------------|
-0-0-0-0-0-0-0-0--2-2-2-2-2-2-2-4-4-4-4-4-4-4-6-6-6-6-|


Chorus: Let the Last Note Ring....
------------------------------------------------------|
----------------------------------5-------------------|
----5---3--5---3---------7-5--7-5---------------------|
-----------------3------------------------------------|

------------------------------------------------------|
----------------------------------5--5-5-5------------|
----5---3--5---3---------7-5--7-5---------------------|
-----------------3------------------------------------|
[ Tab from: http://www.guitartabs.cc/tabs/d/def_leppard/women_btab.html ]
Before Solo: Let 0 and 7 ring for a sec....
------------------------------------------------------|
------------------------------------------------------|
------------------------------------------------------|
--3-5--7-----5--3--0----3-5--7------------------------|

Solo:
-----------------------------------------------------|
-----------------------------------------------------|
-----------------------------------------------------|
--0-0-0-0-0-3-3-3-3--5-5-5-5--3-3-3-3-0-0-0-0--------|

-----------------------------------------------------|
-----------------------------------------------------|
-----------------------------------------------------|
---3-3-3-3--5-5-5-5--3-3-3-3-0-0-0-0-----------------|

-----------------------------------------------------|
-----------------------------------------------------|
-----------------------------------------------------|
---3-3-3-3--5-5-5-5--3-3-3-3-0-0-0-0-----------------|

-----------------------------------------------------|
-----------------------------------------------------|
-----------------------------------------------------|
-3-3-3-3--5-5-5-5--3-3-3-3---------------------------|


Pre Chorus:
------------------------------------------------------|
------------------------------------------------------|
------------------------------------------------------|
-0-0-0-0-0-0-0-0--2-2-2-2-2-2-2-4-4-4-4-4-4-4-6-6-6-6-|

------------------------------------------------------|
------------------------------------------------------|
------------------------------------------------------|
-0-0-0-0-0-0-0-0--2-2-2-2-2-2-2-4-4-4-4-4-4-4-6-6-6-6-|

------------------------------------------------------|
------------------------------------------------------|
------------------------------------------------------|
-00-00-00---------------------------------------------|


------------------------------------------------------|
------------------------------------------------------|
------------------------------------------------------|
-00-00------------------------------------------------|

Chorus:
------------------------------------------------------|
----------------------------------5-------------------|
----5---3--5---3---------7-5--7-5---------------------|
-----------------3------------------------------------|

------------------------------------------------------|
----------------------------------5--5-5-5------------|
----5---3--5---3---------7-5--7-5---------------------|
----------------3-------------------------------------|

------------------------------------------------------|
----------------------------------5--5-5-5------------|
----5---3--5---3---------7-5--7-5---------------------|
----------------3-------------------------------------|

------------------------------------------------------|
------------------------------------------------------|
------------------------------------------------------|
-0-0-0-0-0-0-0-0--7-7-7-7--9-9-9-9--------------------|


------------------------------------------------------|
------------------------------------------------------|
------------------------------------------------------|
-0-0-0-0-0-0-0-0--5-5-5-5--7-7-7-7--------------------|

------------------------------------------------------|
------------------------------------------------------|
------------------------------------------------------|
-0-0-0-0-0-0-0-0--7-7-7-7--9-9-9-9--------------------|


------------------------------------------------------|
------------------------------------------------------|
------------------------------------------------------|
-0-0-0-0-0-0-0-0--5-5-5-5--7-7-7-7--------------------|

------------------------------------------------------|
------------------------------------------------------|
------------------------------------------------------|
-0-0-0-0-0-0-0-0--7-7-7-7--9-9-9-9--------------------|


------------------------------------------------------|
------------------------------------------------------|
------------------------------------------------------|
-0-0-0-0-0-0-0-0--5-5-5-5--7-7-7-7--------------------|

------------------------------------------------------|
------------------------------------------------------|
------------------------------------------------------|
-0-0-0-0-0-0-0-0--5-5-5-5--7-7-7-7--------------------|

NOTE: This isn't the end of the entire song. About 5-8 seconds before it
ends. Play how your fingers flow and figure out the rest.
Comments