Def Leppard - Unbelievable Chords & Tabs

 

Unbelievable Chords & Tabs

Def Leppard Chords & Tabs

Version: 1 Type: Tab 0 ratings
1 star 2 stars 3 stars 4 stars 5 stars
comments

Unbelievable Tab

ARTIST: Def Leppard
TITLE: Unbelievable
ALBUM: X
TABBED BY: Martin Kelly



				Repeat once
E------------------------------------------------------------------------------------------
B--------3------0-0------1--0--------------------------------------------------------------
G----0--------0--------0-------0-----------------------------------------------------------
D--2---2----2--------2---------------------------------------------------------------------
A------------------------------------------------------------------------------------------
E------------------------------------------------------------------------------------------


E--3-------------------0--------------------0-----------1-1-1-1-------------3--------------
B--0-------------------1--------------------0-----------1-1-1-1-------------0--------------
G--0-------------------0--------------------0-----------2-2-2-2-------------0--------------
D--0-------------------2--------------------2-----------3-3-3-3-------------0--------------
A--2-------------------3--------------------2-------------------------------2--------------
E--3-------------------0--------------------0-------------------------------3--------------

VERSE

E--3-----------------3----------------3------------------3---------------------------------
B--0-----------------0----------------0------------------0---------------------------------
G--0-----------------0----------------0------------------0---------------------------------
D--0-----------------0----------------0------------------0---------------------------------
A--2-----------------2----------------2------------------2---------------------------------
E--3-----------------3----------------3------------------3---------------------------------

BRIDGE

E------------------------------------------------------------------------------------------
B--------1------------3--------------------------------------------------------------------
G------0----0-------0----0------0----------------------------------------------------------
D----2------------2---------0-2------------------------------------------------------------
A--3------------3--------------------------------------------------------------------------
E------------------------------------------------------------------------------------------

CHORUS
[ Tab from: http://www.guitartabs.cc/tabs/d/def_leppard/unbelievable_tab.html ]
E--3---------2---------2--------3---------2--------2--------0-------2----------------------
B--0---------3---------3--------0---------3--------3--------1-------3----------------------
G--0---------2---------4--------0---------2--------4--------0-------2----------------------
D--0---------0---------4--------0---------0--------4--------2-------0----------------------
A--2----------------------------2---------------------------3------------------------------
E--3----------------------------3---------------------------0------------------------------

INTRO, VERSE. BRIDGE, CHORUS


BRIDGE 2

E--1---------------1-----------1-----------------------------------------------------------
B--3---------------3-----------3-----------------------------------------------------------
G--3---------------3-----------3--------3--5/7------9--------------------------------------
D--3---------------3-----------3-----------------------------------------------------------
A------------------------------------------------------------------------------------------
E------------------------------------------------------------------------------------------

SOLO

E------------------------------------------------------------------------------------------
B--12--------------------------------------------------------------------------------------
G-------------------11-12-12-12-12-12-12--11-11-12-12-12-12-12--9-7-4-4-4------------------
D------------------------------------------------------------------------------------------
A------------------------------------------------------------------------------------------
E------------------------------------------------------------------------------------------

CHORUS 3
			Repeat once
E------------0----------4--------------2------------0--------------------------------------
B------------0----------5--------------3------------0--------------------------------------
G--2---------1----------6--------------2------------1--------------------------------------
D--2---------2----------6--------------0------------2--------------------------------------
A--0---------2--------------------------------------2--------------------------------------
E------------0--------------------------------------0--------------------------------------

ENDING

E-------------2-------------------------2-----------3--------------------------------------
B-------------3-------------------------3-----------0--------------------------------------
G--2----------2-----------2-------------2-----------0--------2-----------------------------
D--2----------0-----------2-------------0--------------------2-----------------------------
A--0----------------------0----------------------------------0-----------------------------
E------------------------------------------------------------------------------------------


Comments