Def Leppard - Two Steps Behind Chords & Tabs

 

Two Steps Behind Chords & Tabs

Def Leppard Chords & Tabs

Version: 5 Type: Tab 0 ratings
1 star 2 stars 3 stars 4 stars 5 stars
comments

Two Steps Behind Tab

Song: 2 steps behind
      --------------
by: Def Leppard
tabbed by: Keiju (bunga_anciano@yahoo.com)
...Normal Tune...

Here is my impressions about the solo from this easy song. If u can
play it with a friend the solo makes it sound better than simple
chords ?dont u think?

This solo is based on the simpler solo tabbed by "unknown"
(burrowpimp13@yahoo.com) so i want to thank him for that!

Also the intro part is a bit more complex than in his tab
but i haven?t tabbed that...
--------------
Other Guitar plays A D G D (4 times)

E-----------------------------------------|
B-----------------------------------------|
G--7/9-99-999-9\7/9-9--2/4-4-4-444-2/6-6--|
D-----------------------------------------|
A-----------------------------------------|
E-----------------------------------------|
[ Tab from: http://www.guitartabs.cc/tabs/d/def_leppard/two_steps_behind_tab_ver_5.html ]
E--9/11-11-11-9-9-9---9\7-7-7--7/9--9--9--9-9-9---9\7-7-5--|
B-10/11-11-11-101010-10\8-8-8--8/10-10-10-101010-10\8-8-7--|
G----------------------------------------------------------|
D----------------------------------------------------------|
A----------------------------------------------------------|
E----------------------------------------------------------|

E-5/9--/9--9\5-5-5------------|
B-----------------------------|
G-----------------------------|
D-----------------------------|
A------------------------0p2--|
E-------------------0-00------|

E-----------------------------------------------------------|
B--4/5-5-5-555-5\3-3-3--3\2----------------------12///////--|
G--5/6-6-6-666-6\4-4-4--4\2--7/9-9-9-999-9/13-13------------|
D-----------------------------------------------------------|
A-----------------------------------------------------------|
E-----------------------------------------------------------|


Keiju tabbed this (bunga_anciano@yahoo.com) mail me for any (ANY) thing
u want :)
Comments