Def Leppard - Two Steps Behind Chords & Tabs

 

Two Steps Behind Chords & Tabs

Def Leppard Chords & Tabs

Version: 1 Type: Tab 0 ratings
1 star 2 stars 3 stars 4 stars 5 stars
comments

Two Steps Behind Tab

   
 This is The best i could do an the intro:
Into:
E----5b--9b--7b--5-
B----5b-10b--8b--7-
G----6b--9b--7b--7-
Reapeat Once

Verse 1

        A D         G      D       A D        G       D
Walk Away   If you want to   It\'s ok   If you need to 

        A  D                   E   D               A D        E                    D
You can run  But you can never hide  From the shadow  That\'s creepin up beside you

PRE Chorus:

F#m                 D                            G                    E E E  
Now there\'s a magic runnin through your sole but you can\'t have it all

     
     Chorus:
                     A    D              E   
     Whatever you do I\'ll be two steps behind you 
     
     D               A           D         E         D
     Wherever you go and I\'ll be there to remind you

             A              D                E     G                D
     That it only takes a minute of your preciouse time  To turn around

     I\'ll be Two steps behind  A D G x2


Verse 2: Softer
[ Tab from: http://www.guitartabs.cc/tabs/d/def_leppard/two_steps_behind_tab.html ]
             A D            G     D                  
Take the time    To think about it  Just walk the line

A       D                 G      D                  A        D                 E   D
    You know you just cant fight it  Take a look around  and see what you can find

              A D                  E          D
Light the fire  That\'s Burnin up inside of me


Pre Chorus
Chorus  
Intro

Solo: Guitar2:A D G D 

Guitar1:

E---------------------------------11b--9b--7b--5--
B---------------------------------11b-10b--8b--7--
G----7b--9--7--9--7--2b--4--2b--6-----------------
D-------------------------------------------------
A-------------------------------------------------
E-------------------------------------------------

E----9--5--0
B-------------------------4b--5--3--2---------------------12b--13--14
G-------------------------5b--6--4--2---7--7--7b--9b--14-------------
D--------------------------------------------------------------------
A------------------0b--2---------------------------------------------
E-------------0--0---------------------------------------------------


Pre Chorus
Chorus

Outro: A D G D A(On Outro Only Play the G and D strings Except on the Final A


P.S. This Song is not a very complicated song I am possitive on the chords
on the solo it may not be perfect but it matches just fine. Have fun. If you know any
improvements email me at burrowpimp13@yahoo.com










Comments