Def Leppard - Tonight Chords & Tabs

 

Tonight Chords & Tabs

Def Leppard Chords & Tabs

Version: 1 Type: Bass Tab 0 ratings
1 star 2 stars 3 stars 4 stars 5 stars
comments

Tonight Bass Tab

Def Leppard tbbed by saturns_bassman( )=let it ring or hold for that number
Tonight bass tabs                  co=cut off             of counts
                                    ^=play short
verse:                              \=slide to nut
x1(or everytime verse occurs)      po=pull off
                                  "dont try...."
g|-----------------------------9\--------------------------------------------|
d|---------------------------------------------------------------------------|
a|--------3-------------3---------------------------------------------2--3---|
e|-5--555----5----5-555----5------5---5--3--2--2---1--5--5--3---0--5---------|
                                                          (next line)
g|---------------------------------------------------------------------------|
d|---------------------------------------------------------------------------|
a|--------------------------------------2--3----------------------5co--------|
e|--0--5----5--3--2--1--5--5--3---0--5---------0--5----5--3co--2--------1----|
                                                          (next line)
g|---------------------------------------------------------------------------|
d|---------------------------------------------------------------------------|
a|----------------------------2-3--------------------------------------------|
e|-3co-5co---5co-3co--0co--5-----0-3-0--5553--2221--3535----------3--------0-|
                                                           (next line)
g|-------------------------------------||
d|-------------------------------------||
a|----2--3-(3)--------------------2---3||
e|--5----------0--3--(3)---5---5-------||

chorus:
x1(or everytime chorus occurs)

"Tonight...."
g|------------------------------------------------14------12-----------------|
d|----------------------------------------------------14------12-------------|
a|--------------------------------------------------------------------8--10--|
e|-5553-5555--5555-5555--5553-55-5-55--5555-55-3\-----------------10---------|
                                                         (next line)
g|---------------------------||
d|---------------------------||
a|--12---10---(10)--12-------||
e|------------------------12\||

verse x1
chorus x1
verse x1 then chorus till end of song fade out or end on 12th fret on E
[ Tab from: http://www.guitartabs.cc/tabs/d/def_leppard/tonight_btab.html ]
Comments