Def Leppard - Rebel Rebel Chords & Tabs

 

Rebel Rebel Chords & Tabs

Def Leppard Chords & Tabs

Version: 1 Type: Bass Tab

Rebel Rebel Bass Tab

Band:Def leppard
Song:Rebel Rebel
Album: X (The raw copy)

[ Tab from: http://www.guitartabs.cc/tabs/d/def_leppard/rebel_rebel_btab.html ]
Intro
G/-------9---7--------------------------------------------------------------|
D/---------------9---7---6--------------------------------------------------|
A/------------------------------7-7~----------------------------------------|
E/--------------------------------------------------------------------------|
B/--------------------------------------------------------------------------|
    Verse
G/--------------------------------------------------------------------------|
D/--------------------------------------------------------------------------|
A/-------5-5-4-5--7~----------0-1-2-3--/--5-5-4-5-7-------------0-1-2-3~----|
E/-------------------0--2--3---------------------------0--2--3--------------|
B/--------------------------------------------------------------------------|
    Chorus:
G/--------------------------------------------------------------------------|
D/--------------------------------------------------------------------------|
A/------------5---------------7~--------------------------------------------|
E/----5--------------7------------------------------------------------------|
B/---5--------------7-------------------------------------------------------|

This is a david bowie cover again almost the same as the orginal but 5 string
this should be correct im sure any way if u think there r things that need to
be changed tell me (kyran_motley_crue@msn.com) so enjoy
DEF LEPPARD RULZZZZZZZZ!