Def Leppard - Promises Chords & Tabs

 

Promises Chords & Tabs

Def Leppard Chords & Tabs

Version: 3 Type: Tab

Promises Tab

Promises  Def Leppard (Euphoria)
Tabbed by Slush 

Every other tab for this song on the net is off.
This is the absolute correct way to play the intro.
Solo to be posted as soon as i get a new first string.

Intro

Guitar 1
e -----------------------------------------------------------------
B -----------------------------------------------------------------
G ---9-8---8-9-8-----6-9-----9-------7-9---6-9-6----7-9---6-9-11-9-
D -9-----9-------9-7-----6-9---9-6-7-----7-------7------7----------
A -----------------------------------------------------------------
E -----------------------------------------------------------------


Guitar 2
e -----------------------------------------------------------------
B -----------------------------------------------------------------
G ---------------------------------7---7----6------7---7----9------
D ---------------------------------7---7----7------7---7----9------
A -----------------------------------------------------------------
E -----------------------------------------------------------------


Guitar 1
e -----------------------------------------------------------------
B -----------------------------------------------------------------
G ---9-8---8-9-8-----6-9-----9-------7-9---6-9-6----7-9---6-9-11-9-
D -9-----9-------9-7-----6-9---9-6-7-----7-------7------7----------
A -----------------------------------------------------------------
E -----------------------------------------------------------------
[ Tab from: http://www.guitartabs.cc/tabs/d/def_leppard/promises_tab_ver_3.html ]
Guitar 2
e -----------------------------------------------------------------
B -----------------------------------------------------------------
G -9---9----8------6---6----4------7---7----6------7---7----9------
D -9---9----9------6---6----4------7---7----7------7---7----9------
A -----------------------------------------------------------------
E -----------------------------------------------------------------


Verses

Guitar 1
e -----------------------------------------------------------------
B -----------------------------------------------------------------
G ---9-8---8-9-8-----6-9-----9-------7-9---6-9-6----7-9---6-9-11-9-
D -9-----9-------9-7-----6-9---9-6-7-----7-------7------7----------
A -----------------------------------------------------------------
E -----------------------------------------------------------------

Guitar 2
e -----------------------------------------------------------------
B -----------------------------------------------------------------
G -9---9----8------6---6----4------7---7----6------7---7----9------
D -9---9----9------6---6----4------7---7----7------7---7----9------
A -----------------------------------------------------------------
E -----------------------------------------------------------------

X 2



e -----------------------------------------------------------------
B -----------5--------------5--------------5-----------------------
G --------6--------------6--------------7----------7--7--7--7--7---
D -----7--------------7--------------7-------------7--7--7--7--7---
A --0--------------5--------------5----------------5--5--5--5--5---
E -----------------------------------------------------------------