Def Leppard - Photograph Chords & Tabs

 

Photograph Chords & Tabs

Def Leppard Chords & Tabs

Version: 1 Type: Bass Tab 0 ratings
1 star 2 stars 3 stars 4 stars 5 stars
comments

Photograph Bass Tab

   
Def Leppard Photograph Bass Tab 
tabbed by saturns_bassman
the bass comes in on the verse
play one of these for that 12 fret-(1-12 on E(2-7 on A(3-2 on D       
verse:
x1(or everytime verse occurs)
           "I see your face everytime i dream"   then go to this
g|-----------]-----------------------|----------------||
d|-----------]-----------------------|--------7777777\|| 
a|-----------]-----------------------|-22--00---------||
e|-12-12-12\-]0000000000000-12-12-12\[----------------||
              play the part above in ][ three times
pre-chorus
x1(or everytime pre-chorus occurs)    *=let it ring
                                      /=slide up
g|----------------------------------------------------||
d|----------------------------------------------------||
a|-333-32-22-5-00*-5-0---0-2-333-32-22-5-00*-5-0---0-2||
e|---------------------3-------------------------3----||

chorus:
x1(or everytime chorus occurs)
[ Tab from: http://www.guitartabs.cc/tabs/d/def_leppard/photograph_btab.html ]
g|-----------------------------------------------------------------------||
d|-----------------------------------------------------------------------||
a|-222-3333-555-77770-222-333-777-55550-222-3333-77770-222-3333-777-55550||
e|-----------------------------------------------------------------------||

pre-solo:
x1

g|----------------------------------||
d|----------------------------------||
a|---------------------7-7/15---15\-||
e|-0-0-0-00-10-10-10-0--------------||

solo:
x1 

g|----------------------------------------------------------------------||
d|----------------------------------------------------------------------||
a|-0007777555555555-00077775555555-000777755555555-00077775555-5/15-15\-||
e|----------------------------------------------------------------------||

play this little riff when Joe sings "I wanna touch you...."
x1
                            i guessd on this part
g|--------------------------|----------------||
d|--------------------------|----------------||
a|-2222-2222-2222-2222-2222-|2-3-5-7-9-11-12-||
e|--------------------------|----------------||

last chorus:
x1

g|------------------------------------------------||
d|------------------------------------------------||
a|-222-3333-555-77770-222-3333-5555555-000-7777-0-||
e|------------------------------------------------||
 
song structure:
verse x1
pre-chorus x1
chorus x1 
verse x1
pre-chorus x1
chorus x1
pre-solo x1
solo x1 
pre-chorus x1
chorus x1 
little riff x1 
last chorus x1 (fade out)
Comments