Def Leppard - Personal Property Chords & Tabs

 

Personal Property Chords & Tabs

Def Leppard Chords & Tabs

Version: 1 Type: Tab 0 ratings
1 star 2 stars 3 stars 4 stars 5 stars
comments

Personal Property Tab

Tabbed by: John Ogden
Artist: Def Leppard
Album: Adrenalize

I dont know if its standard tuning or not because
my tuner broke.  Hope you like it.
[ Tab from: http://www.guitartabs.cc/tabs/d/def_leppard/personal_property_tab.html ]
Intro
e------------------------------------------------------------------------
B------------------------------------------------------------------------
G----------------------------------4-----4---------4-----4---------------
D--------------------------------4---4-2---4-----4---4-2---4--2----------
A-----2-----2-------2-----2----2---------------2--------------2----------
E-2-----2-2---2-2-----2-2---2---------------------------------0---///1---

Verse
e-----------------------
B----------8-8-7-8-7----
G----------7-7-7--------
D-7-----7---------------
A-7-----7---------------
E-5-----5---------------

Pre-Chorus
e------------------------------------
B------------------------------------
G------------------------------------
D------------------------------------
A-9-7-9-7-9-9-7-9-7--7----2-----0h2--
E-7-7-7-7-7-7-7-7-7--5----0--0h2-----

Chorus
e------------------------
B------------------------
G-------5--7-------------
D-7--5--5--7-------------
A-7--5--3--5-------------
E-5--3-------------------
Comments