Def Leppard - Now Chords & Tabs

 

Now Chords & Tabs

Def Leppard Chords & Tabs

Version: 1 Type: Bass Tab

Now Bass Tab

   
G|---------------|
D|---------------|
A|---------------|      intro  
D|---------------|
A|---6-6---4-4---| x1

Verse:

G|---------------|
D|---------------|
A|---5---6-665---|
D|-5---5------7--|
A|---------------| x8


  "It's hard sometimes I know"
G|------------------------------|
D|---5--5--5--5-----------------|
A|--5--5--5--5--6---5---6-665---|
D|-5--5--5--5--5--5---5------7--|
A|------------5-----------------| x1

G|------------------------------|
D|---5--5--5--5-----------------|
A|--5--5--5--5--5---5---6-665---|
D|-5--5--5--5--5--5---5------7--|
A|------------5-----------------| x1

G|---------------|     |--------------|
D|---------------|     |--------------|
A|---5---6-665---|     |--------------|
D|-5---5------7--|     |--------------|
A|---------------| x3  |---6-6---4-4--| x1

Chorus

G|-------------------------------------------------------------------|
D|-------------------------------------------------------------------|
A|-------------------------------------------------------------------|
D|-----76-----76-------76-----76-------76-----76-------76-----76-----|
A|-1--1--01--1--01-1--1--01--1--01-1--1--01--1--01-1--1--01--1--01-1-|


  "I'll miss you while I'm gone"
G|---------------------------|
D|---------------------------|
A|---------------------------|
D|-5-5-5-5-5-5-5-5-----------|
A|------------------6-6---44-| x8


  "It's hard sometimes I know"
G|------------------------------|
D|---5--5--5--5-----------------|
A|--5--5--5--5--6---5---6-665---|
D|-5--5--5--5--5--5---5------7--|
A|------------5-----------------| x1
[ Tab from: http://www.guitartabs.cc/tabs/d/def_leppard/now_btab.html ]
G|------------------------------|
D|---5--5--5--5-----------------|
A|--5--5--5--5--5---5---6-665---|
D|-5--5--5--5--5--5---5------7--|
A|------------5-----------------| x1

G|---------------|     |--------------|
D|---------------|     |--------------|
A|---5---6-665---|     |--------------|
D|-5---5------7--|     |--------------|
A|---------------| x3  |---6-6---4-4--| x1

Chorus

G|-------------------------------------------------------------------|
D|-------------------------------------------------------------------|
A|-------------------------------------------------------------------|
D|-----76-----76-------76-----76-------76-----76-------76-----76-----|
A|-1--1--01--1--01-1--1--01--1--01-1--1--01--1--01-1--1--01--1--01-1-|

Interlude

G|-------------------------------------------------|
D|-------------------------------------------------|
A|-------------------------------------------------|
D|-8-8-8-8-8-8-8-8-8-8-8-8-8-8-8-8-8-8-8-8-8-8-8-8-|
A|-------------------------------------------------|

G|-----------------------------------------------------------|
D|-----------------------------------------------------------|
A|-----------------------------------------------------------|
D|-8-8-8-8-8-8-8-83-3-3-3-3-3-3-3-3-3-3-3-3-3-3--------------|
A|-----------------------------------------------5(let ring)-|


G|---------------------------|
D|---------------------------|
A|---------------------------|    thats it i got this off 911 tabs cuz i 
D|-5-5-5-5-5-5-5-5-----------|    think there should be more def leppard 
A|------------------6-6---44-| x8 tabs DEF LEPPARD RULZZZ!