Def Leppard - No No No Chords & Tabs

 

No No No Chords & Tabs

Def Leppard Chords & Tabs

Version: 1 Type: Tab 0 ratings
1 star 2 stars 3 stars 4 stars 5 stars
comments

No No No Tab

Here is the tab for NO,No, No. I know it's correct, cause it's straight outta the
High'n'Dry guitar tab book. Enjoy!

Standard Tunning

Intro:

e-------------------------|--------------------------|--------------------|
b-------------------------|--------------------------|--------------------|
g-------------------------|--------2--------1-----0--|--0-----------------|
d-------------------------|--------------------------|-----0-----------2--|
a--3--3--0--5----3--2--0--|---0--0----0--0-----0-----|--------4--3--0--0--|
e-------------------------|--------------------------|--------------------|


e-------------------------|--------------------------|
b-------------------------|--------------------------|
g-------------------------|--------------------------|  (repeat 3 times)
d---2--------0------3-----|-----2---0----------------|
a------3--0--0------3-----|-----------3-----------0--|
e-------------------------|--------------3------4----|

Verse 1 & 2:

e------------------|--------------|-----------------|----------------|
b------------------|--------------|-----------------|----------------|
g----2------1---0--|--------------|-----------------|----------------| (2x"s)
d------------------|--0-------2---|--2-----0-----3--|----------------|
a-0-0--0-0---0-----|----4-3-0-0---|----3-0-0-----3--|-----3-------0--|
e------------------|--------------|-----------------|-----3-----3----|

Bridge:

e----|------------------|-----------------|----------------|---------------|
b----|------------------|-----------------|----------------|---------------|
g----|------------------|-----------------|-------------10-|---------------|
d--10/12--12-12-12----10/12--12-12-12---10/12-12---12---10-|--14-12-10-----|
a--10/12--12-12-12----10/12--12-12-12---10/12-12---12------|------------10-|
e----|------------------|-----------------|----------------|---------------|

e----|------------------|-----------------|----------------|---------------|
b----|------------------|-----------------|----------------|---------------|
g----|------------------|-----------------|--------------9-|-9--9--9--9--9-|
d--10/12--12-12-12----10/12--12-12-12---10/12--12---12---9-|-9--9--9--9--9-|
a--10/12--12-12-12----10/12--12-12-12---10/12--12---12-----|---------------|
e----|------------------|-----------------|----------------|---------------|


Chorus:

e------------|-----------|----------|-------------|----------|--------|-----|
b------------|-----8--10-|----------|----8--7-----|----------|---8-10-|-----|
g---------7--|-----------|-------7--|---------7---|-------7--|--------|-----|
d---10----7--|-7---------|--10---7--|-7---------7-|--10---7--|-7------|-10--|
a---10-------|-7---------|--10------|-7-----------|--10------|-7------|-10--|
e------------|-----------|----------|-------------|----------|--------|-----|.

Guitar Solo:
[ Tab from: http://www.guitartabs.cc/tabs/d/def_leppard/no_no_no_tab.html ]
e--15------------------|-12---------13--12--|---------------------|------------|
b--------15----15--13--|--------------------|-15---13-15---13-----|-13--13--13-|
g----------------------|--------------------|-----------------14--|---14-------|
d----------------------|--------------------|---------------------|------------|
a----------------------|--------------------|---------------------|------------|
e----------------------|--------------------|---------------------|------------|

e--17--15-12-17---15-12-17---15-12-17--|-15-12-17-12-15-12-17-12-15-12-17-12-15-12-17-12-|
b--------------------------------------|-------------------------------------------------|
g--------------------------------------|-------------------------------------------------|
d--------------------------------------|-------------------------------------------------|
a--------------------------------------|-------------------------------------------------|
e--------------------------------------|-------------------------------------------------|

e-15-12-17-12-15-12-17-12-15-12-17-12-15-12-17-12-|-17--15--12--15--12--15--15--15---|
b-------------------------------------------------|----------------------------------|
g-------------------------------------------------|----------------------------------|
d-------------------------------------------------|----------------------------------|
a-------------------------------------------------|----------------------------------|
e-------------------------------------------------|----------------------------------|

e------------------------------------|--------------------------------|---------------------|
b-12--13-----13----13---13----13-----|--13--13---13---13---13---13----|-13-----13-----------|
g---------------------------------14-|-----------------------------14-|-----14----14--------|
d------------------------------------|--------------------------------|------------------14-|
a------------------------------------|--------------------------------|---------------------|
e------------------------------------|--------------------------------|---------------------|

e------------------------------|-------------------------------------|-------------|
b------------------------------|-------------------------------------|-------------|
g------------------------------|-------------------------------------|-------------|
d---14--14--14--13--12--10-----|--10--12--10------10--------------10-|-------------|
a---------------------------12-|--------------12--------12-----------|----12--12---|
e------------------------------|-------------------------------------|-------------|

Outro:
"no, no, no, I say no, no, no, I say....."

e---------|--------------|------------|-------------------------|------|
b---------|--------------|------------|-------------------------|------|
g------7--|--------------|------7-----|-------------------------|------|
d--10--7--|--7-----------|--10--7-----|-------------------------|------|
a--10-----|--7-----------|--10--------|-----------5-------------|------|
e---------|--------------|------------|--8--8--8-------8--7--5--|-5----|

"no, no,no,no,no,no,no,no,no....."

Pretty easy to play. Just listen to the song a few times and then you should
get the hang of it. One of Leppard's best songs (IMO).
Comments