Def Leppard - Love And Affection Chords & Tabs

 

Love And Affection Chords & Tabs

Def Leppard Chords & Tabs

Version: 1 Type: Tab 0 ratings
1 star 2 stars 3 stars 4 stars 5 stars
comments

Love And Affection Tab

   
-----------------------------------------------------------------------------
			     Love and Affection- Def Leppard
-----------------------------------------------------------------------------
Tabbed by: Eric Czerwinski  
Email:  teamski1@hotmail.com

Tuning: Normal

Chords:

Whichever sounds good to you:
A: 002220 or 577655
D: 000232 or 557775
G: 320033 or 355433

Intro:

e|------------5---3---2-------------5---3---2---------------------------|
B|------------5---3---3-------------5---3---3---------------------------|
G|------------6---4---2-------------6---4---2---------------------------|
D|------------7---5-----------------7---5-------------------------------|
A|-0-5-0-4-0--7---5------0-5-0-4-0--7---5------0-5-0-4-0----------------|
E|------------5---3-----------------5---3-------------------------------|

(palmed)A                                  D
You got the fire, baby, I got the heat, can you handle it?
        A                                  D
I got the time, babe, you got the need, oh surrender it
        G				  	A			
Oh, it's a passion crime with a danger sign, oh, can you handle it?
        G                                       A                     D
You're just another girl, I'm just another man, it's just another night


Chorus:

Don't gimme love and affection or what you think it should be
    A                         D                         
e|-----------------------------------------------------------------------|
B|----------0--------0-----------0-----0------0--------------------------|
G|--------2--------2---2-------2---2-----2------2------------------------|
D|------2--------2-----------0-------0-----0------0----------------------|
A|----0--------0---------------------------------------------------------|
E|-----------------------------------------------------------------------|

Don't gimme love, the wrong reason yeah, it don't matter to me
    A                          D                         
e|-----------------------------------------------------------------------|
B|----------0--------0------------0-----0--------------------------------|
G|--------2--------2---2--------2---2-----2------------------------------|
D|------2--------2------------0-------0-----0----------------------------|
A|----0--------0-------------------------------------------0-5-0-4-0-----|
E|-----------------------------------------------------------------------|

(palmed)A                                 D
I got the heart, babe, you got the beat, take a chance on me
        A                                 D
We got the night babe  We got the dream, oh imagine it
        G                                     A
Oh, it's a passion crime with a danger sign Oh, can you handle it?
        G                                     A                       D
You're just another girl, I'm just another man, it's just another night


Chorus:

Don't gimme love and affection or what you think it should be
    A                         D                         
e|-----------------------------------------------------------------------|
B|----------0--------0-----------0-----0------0--------------------------|
G|--------2--------2---2-------2---2-----2------2------------------------|
D|------2--------2-----------0-------0-----0------0----------------------|
A|----0--------0---------------------------------------------------------|
E|-----------------------------------------------------------------------|
[ Tab from: http://www.guitartabs.cc/tabs/d/def_leppard/love_and_affection_tab.html ]
Don't gimme love, the wrong reason yeah, it don't matter to me
    A                         D                         
e|-----------------------------------------------------------------------|
B|----------0--------0-----------0-----0------0--------------------------|
G|--------2--------2---2-------2---2-----2------2------------------------|
D|------2--------2-----------0-------0-----0------0----------------------|
A|----0--------0---------------------------------------------------------|
E|-----------------------------------------------------------------------|

I don't need your understandin' Oh babe can't you understand me
    A                         D                         
e|-----------------------------------------------------------------------|
B|----------0--------0-----------0-----0------0--------------------------|
G|--------2--------2---2-------2---2-----2------2------------------------|
D|------2--------2-----------0-------0-----0------0----------------------|
A|----0--------0---------------------------------------------------------|
E|-----------------------------------------------------------------------|

    G   D   A   G   D   A

Solo:  (As best I can)

e|-12-12-----------------------------------------------------------------|
B|-------10-10/-12/-14-12-12-14p-12-14p-12-------12-12-14p-12-14p-12-----|
G|-----------------------------------------11/-14------------------------|
D|-----------------------------------------------------------------------|
A|-----------------------------------------------------------------------|
E|-----------------------------------------------------------------------|

e|-12-12-12\-10-10\-15---------------------------------------------------|
B|-----------------------------------------------------------------------|
G|-----------------------------------------------------------------------|
D|-----------------------------------------------------------------------|
A|-----------------------------------------------------------------------|
E|-----------------------------------------------------------------------|


        G                                   A
It's a passion play in a diff'rent way oh can you handle it, yeah
        G                                   A                         D
You're just another girl, I'm just another man, it's just another night


Chorus: (as above)

Don't gimme love and affection or what you think it should be

Don't gimme love, the wrong reason, yeah, it don't matter to me

I don't need your understandin'Oh babe can't you understand me?

      G                                         A                            
I don't need, don't need your heart, no understandin', no affection, 
      D
don't give me love


(repeating)
e|--12-10-------12-12-10------------------------------------------------|
B|--------12-10----------12-10/-12--------------------------------------|
G|----------------------------------------------------------------------|
D|----------------------------------------------------------------------|
A|----------------------------------------------------------------------|
E|----------------------------------------------------------------------|
And affection
(And affection)
Don't gimme love
(I don't need it)
Gimme what you got
Oh
(Don't give me love)
Love
(I don't need the wrong reason)
The wrong reason
I don't need it
(I don't need)
Don't need it
Oh babe
(I don't need)
Need
(I don't need your understandin')
our understandin'
(I don't need)
Oh
(Don't give me love)
(I don't need)
And affection
Give me all you got
Give it all, give it all
Give it all
(Don't give me love)
(I don't need)
The wrong reason 


| /  slide up
| \  slide down
| h  hammer-on
| p  pull-off
| ~  vibrato
| +  harmonic
| x  Mute note
===============================================================================
Comments